MusicATM : คอร์ดเพลง ง่ายเกินไป หิน เหล็ก ไฟ คอร์ดกีต้าร์ คอร์ด

คอร์ดเพลง เนื้อเพลง ฟังเพลง

คอร์ดเพลง ง่ายเกินไป

หิน เหล็ก ไฟ

Print

intro นะแกะเล่นๆหนุกๆ
G-----15--14--12h13--10--12--10-------------------15--14--12h14--10----10----8----
D-s12------------------------------------12--10---s12---------------------------12---10------
A----------------------------------------------------------------------------------------------------10

G-----15--14--12h13--10--12--10------------------------------------------------------
D-s12------------------------------------12--10------------------10--12--12h13p12
A------------------------------------------------------10--12--13-----------------------------

ยังไม่ได้แกะโซโล่ แกะเดียวเอามาโพสคัยมีก็เอามาโพสได้นะช่วยๆกันเดียวแก้ให้

http://www.musicatm.com/thai/คอร์ดเพลง-ง่ายเกินไป-4160.html
ส่งเพลงนี้ให้เพื่อน
วันที่โพสต์ : 22 เม.ย.2548,21:24น.
จำนวนผู้ชม : 223814 คน / แสดงความคิดเห็น : 89 ครั้ง
โพสต์โดย


จาก: Golf Sindolls
Guest
เพลงฮิต
เพลงใหม่
เพลงทั้งหมด
เพลงแนะนำ
Fanpage
ข่าวสารจากเว็บครับ
เลือกแสดงเฉพาะ :

  • Guitar - Life k.n.w
    Guest
  • 29 ก.ย.2549,17:46น.
    ยังไม่มีคะแนนสำหรับคอร์ดที่ดีที่สุด
    ช่วยกันกดให้คะแนนคอร์ดเพลงที่คุณชื่นชอบเพื่อนำขึ้นมาจัดแสดงไว้บนสุดนี้

    -        
    --------------------13----15-15s17-----------------------17^17---18^^^17-----20^^
    ---------------------------------------------------------------------------------------------------
    ----------------15-------------------------------------------------------------------------------
    -----------13------------------------------15----17------------------------------------------
    -------------------------------------------------------------------------------------------------
    ------------------------------------------------------------------------------------------------
    หุหุ เขียน tab ไม่ ค่อย เก่ง ... ต่อ จาก คน ด้าน บน นะ ครับ
  • เด็กอ่อน
    Guest
  • 28 เม.ย.2548,14:05น.
    ขอเนื้อด้วยคับ คอร์ดด้วย ขอบคุณอย่างแรง
    ((ขอคอร์ดกีต้าร์))
  • ลูกปลา
    Guest
  • 13 พ.ค.2548,12:29น.
    คอร์ดเพลงนี้ยังไม่มีคะแนน
    (อย่าลืม ช่วยกันกดให้คะแนนคอร์ดเพลงที่คุณชื่นชอบ หรือตัดคะแนนคอร์ดที่คุณไม่ชอบได้เลย)
                 ง่ายเกินไป

    Intro : Gm/Eb/F/Dm/Gm
    Eb/Cm/D7

    Gm F Cm
    เห็นแววตาก็รู้ฉันเข้าใจ
    Eb F Gm
    สิ่งไหนเธอต้องการ
    Gm F Cm
    ขออะไรก็ยอมให้เหมือนเคย
    Eb F Gm
    ทุกอย่างที่เธอเรียกหา

    Cm7 Dm7
    * แต่มาวันนี้เธอทิ้งกันไป
    Gm
    ไม่เหลือเยื่อใย
    Cm7 Dm7 Gm
    ที่เคยพึงพอใจบัดนี้ไม่มีค่าพอ
    Cm7
    สิ่งที่มีความหมาย
    Dm7 Gm
    มันเหลือเพียงความว่างปล่าว
    Eb/Dm
    เธอยังไม่พอ ยังมาหลอกลวง
    Cm/Bb/F
    เป็นของตาย

    Eb F
    **(มันง่ายเกินไปใช่ไหม ที่ฉันยอม)
    Eb F
    (โว...โว...)
    Dm Gm
    ก็เพราะรักเธอจึงยอมทุ่มเททุกอย่าง
    Eb Cm
    เธอได้ฉันมาง่ายไป ไม่เสียดาย
    D7
    เธอไม่เคยหวงแหน
    D7
    (เป็นการตอบแทน)

    Gm F Cm
    ฉันคอยห่วงใยและเฝ้าเอาใจ
    Eb F Gm
    ไม่อยากให้เธอทิ้งไป
    Gm F Cm
    ฉันยอมหมดแล้วที่ฉันมี
    Eb F Gm
    เพียงอยากให้เธอเห็นใจ

    (ซ้ำ *,**)

    Instru : Eb/F/Gm(3times)
    Eb/F/D7

    (ซ้ำ **,**)

    Eb/F/Dm/Gm
    ง่ายเกินไปใช่ไหม

    Instru : Eb/Cm/D7
    Eb/F/Dm/Gm/Eb/Cm/D7('til fade)

  • เรา
    Guest
  • 17 พ.ค.2548,11:11น.
    ขอบคุณมากจ้า
  • มือมัคเล่น
    Guest
  • 17 ก.ค.2548,21:04น.
    งงก็บพีน้อง
  • fjsadkfj
    Guest
  • 18 ก.ค.2548,15:44น.
    อยากได้ 
  • 29 ก.ค.2548,18:43น.
    1       9h10  9  7 5 7  5                  9h10  9 7 5        5
    2 7 7 5 7 7 5
    3 7 4
    4
    5
    6
    แค่นี้แหละนอกนั่นเดี๋ยวค่อยมาพิมพ์ให้
  • ครับ
    Guest
  • 19 ส.ค.2548,20:03น.
    อยากได้tab.........soloอ่ะครับอยากได้จิงน่ะครับ
  • มือเบส
    Guest
  • 15 ก.ย.2548,13:17น.
    อยากได้เพลงสู้ 
  • FIR2029
    Guest
  • 21 ก.ย.2548,15:33น.
    เพลงสู้หรอครับ  โอ้ยยเอาแท็บไปไม่รูจะเล่นได้ป่าวนะ (ถ้าเล่นได้คงแกะเองได้แล้ว)
    เพื่อนผมอยากได้มากกก ให้พี่คนหนึ่งเขียนให้ เอาไปเป็นปีแล้วยังเล่นไม่ได้(ทุกเม็ด)ซีกที
  • โอ๊ดหลานแหลม
    Guest
  • 22 ก.ย.2548,08:56น.
    หาซื้อหนังสือ พี่ Pop thesunมาจิของOverdriveอ่ะ จะมีแท็บบอกนะ 
  • ,,,,,,,,,,,,,,,,,,,,,,
    Guest
  • 22 ก.ย.2548,18:50น.
    อยากได้จนจบอ่ะครับ 
  • SmF
    Guest
  • 31 ต.ค.2548,12:11น.
    ของจิงต้องดู www.stonemetalfire.com ครับ  ถูกชัว ของพวกนี้ยังไม่ใช่อะ  
  • นักปั่น
    Guest
  • 14 พ.ย.2548,14:53น.
          เอาเพลง สู้,ร็อกเกอร์  มั้ย   
  • มือปั่น
    Guest
  • 17 พ.ย.2548,15:13น.
    สู้โหลแล้วจะเอาร็อกเกอร์มีป่ะ solo ด้วยนะ  
  • โอ๊ดหลานแหลม
    Guest
  • 23 พ.ย.2548,16:18น.
    --------6--5---3h5-----------------
    -----------------------6---8-----6
    -----7------------------------------5ดันสาย
    --------------------------------------
    --------------------------------------
    --------------------------------------
    ขี้เกียจเขียนและ
  • junk
    Guest
  • 25 พ.ย.2548,07:48น.
    ข่วยเเกะsoloท่อนกลางให้ทีรับ หรือไม่ก็ช่วยเเนะนำเวบที่เพลงนี้ทั้งเพลง
  • THE เลย
    Guest
  • 17 ธ.ค.2548,21:22น.
    คอร์ดเพลงนี้ยังไม่มีคะแนน
    (อย่าลืม ช่วยกันกดให้คะแนนคอร์ดเพลงที่คุณชื่นชอบ หรือตัดคะแนนคอร์ดที่คุณไม่ชอบได้เลย)
    1-----18---------------18---------------------------------------------------------------------------
    2-----18^----17^----18-----17----18-------------------------------------------------------------------3-----------------------------------------------17^-----17-----15-----17-----15---15----
    4--------------------------------------------------------------------------------------------------
    5--------------------------------------------------------------------------------------------------
    6---------------------------------------------------------------------------------------------------


    1--------------------------------------------------------------------------
    2--------------------------------------15--------------------------------------
    3--------------------15------17-----------15---------17-----15----------------
    4-----17---17-----------------------------------17-----------------------
    5------------------------------------------------------------------------
    6---------------------------------------------------------------------

    1-----------------------------------------------------------------------------
    2-------------------------11-------------------13-------------------11------13--------11------13^
    3-----10s12----12----------12----12-------------12-----12------------------12---------
    4-----------------------------------------------------------------------------
    5------------------------------------------------------------------------------
    6--------------------------------------------------------------------------------

    1--------------------------------------------------------------------------------------
    2-------13---13^---12h13----12-----------------------------11^----------------------------
    3--12----------------------------------12----10---10s12--------------------
    4---------------------------------------------------------------------------------
    5---------------------------------------------------------------------------------------------
    6---------------------------------------------------------------------------------------------

    1-----------------------------------------------------------------------------------------------
    2------------------------------------------------------13----11------------------------------11^-----
    3-----5^--(จิ้ม เฟต15 (7ครั้ง) )---5s12---12-----------------12---10---10s12--------
    4----------------------------------------------------------------------------------------
    5-----------------------------------------------------------------------------------------
    6--------------------------------------------------------------------------------------

    1-------------13-----15----------------------17^---17------------------------------------------
    2----------------------------------------------------------------------------------------------
    3----5s15-----------------17------5s15------------------------------------------------------
    4----------------------------------------------------------------------------------------------
    5----------------------------------------------------------------------------------------------
    6-------------------------------------------------------------------------------------------


    SOLO
    คงเป็นงี้มั้ง ลองดูครับ
  • THE เลย
    Guest
  • 17 ธ.ค.2548,21:23น.
    คอร์ดเพลงนี้ยังไม่มีคะแนน
    (อย่าลืม ช่วยกันกดให้คะแนนคอร์ดเพลงที่คุณชื่นชอบ หรือตัดคะแนนคอร์ดที่คุณไม่ชอบได้เลย)
    1-----18---------------18---------------------------------------------------------------------------
    2-----18^----17^----18-----17----18---------------------------------------------------------
    3---------------------------------------------17^-----17-----15-----17-----15---15----
    4--------------------------------------------------------------------------------------------------
    5--------------------------------------------------------------------------------------------------
    6---------------------------------------------------------------------------------------------------


    1--------------------------------------------------------------------------
    2--------------------------------------15--------------------------------------
    3--------------------15------17-----------15---------17-----15----------------
    4-----17---17-----------------------------------17-----------------------
    5------------------------------------------------------------------------
    6---------------------------------------------------------------------

    1-----------------------------------------------------------------------------
    2-------------------------11-------------------13-------------------11------13--------11------13^
    3-----10s12----12----------12----12-------------12-----12------------------12---------
    4-----------------------------------------------------------------------------
    5------------------------------------------------------------------------------
    6--------------------------------------------------------------------------------

    1--------------------------------------------------------------------------------------
    2-------13---13^---12h13----12-----------------------------11^----------------------------
    3--12----------------------------------12----10---10s12--------------------
    4---------------------------------------------------------------------------------
    5---------------------------------------------------------------------------------------------
    6---------------------------------------------------------------------------------------------

    1-----------------------------------------------------------------------------------------------
    2------------------------------------------------------13----11------------------------------11^-----
    3-----5^--(จิ้ม เฟต15 (7ครั้ง) )---5s12---12-----------------12---10---10s12--------
    4----------------------------------------------------------------------------------------
    5-----------------------------------------------------------------------------------------
    6--------------------------------------------------------------------------------------

    1-------------13-----15----------------------17^---17------------------------------------------
    2----------------------------------------------------------------------------------------------
    3----5s15-----------------17------5s15------------------------------------------------------
    4----------------------------------------------------------------------------------------------
    5----------------------------------------------------------------------------------------------
    6-------------------------------------------------------------------------------------------

  • ผู้ชม
    Guest
  • 26 ม.ค.2549,14:33น.
    ง่าย เกิน ไป มียากกว่านี้ ไหม 
  • ไฟ เหล็ก หิน
    Guest
  • 30 ม.ค.2549,18:14น.
    ใครก็ได้ มีเพลงส่งมาให้เราหน่อยดิ
    Donwazzup_wwehotmail.comเราจะแกะโซโล่อ่ะไม่ได้เลย
  • 6 ก.พ.2549,22:17น.
    ผมอยากได้แบบแม่นๆเหมือนของจริงเลยอ่ะ ใครโพสต์ให้ที ผมจะเล่นวันที่16 เวที ทว.
    ถ้ายังไงผมก็จะลองแกะดูก่อน แต่ถ้าใครเล่นได้ก็ช่วยๆกันหน่อยครับ
  • ผมเอง
    Guest
  • 7 ก.พ.2549,05:04น.
    แกะมั่วป่าว  
  • ผมเอง
    Guest
  • 7 ก.พ.2549,05:15น.
      มันต้องอย่างนี้
    6-------------------------------------------------------------------------------------------------
    5-------------------------------------------------------------------------------------------------
    4-------------------------------------------------------------------------------------------------
    3----7-----------------------------------5-7-5------------------------------------------------
    2--------10-11-10--8-10-6-8--6-----------------------------------------------------------
    1------------------------------------------------------------------------------------------------

    6--------------------------------------------------
    5---------------------------------------------------
    4-------------------------------------------------5
    3----7--------------------------7-----7-5--3
    2-------10-11-10-8-10-6-----6------------
    1---------------------------------------------------

    6-------------------------------------------------------------------------------------------------
    5-------------------------------------------------------------------------------------------------
    4-------------------------------------------------------------------------------------------------
    3----7-----------------------------------5-7-5------------------------------------------------
    2--------10-11-10--8-10-6-8--6-----------------------------------------------------------
    1------------------------------------------------------------------------------------------------

    6----------------------------------
    5----------------------------------
    4--------5-----------------------
    3-----------2-3--5--7---------
    2------------------------------
    1------------------------------

    งงหน่อยนะ แฮ่ๆ
  • ผมเอง
    Guest
  • 7 ก.พ.2549,05:17น.
    อันนี้แน่นอนครับออฟ  เพื่อคุณโดยเฉพาะ 
  • ผมเอง
    Guest
  • 7 ก.พ.2549,05:19น.
    soloไว้วันหลังนะ    
  • ผมเอง
    Guest
  • 7 ก.พ.2549,05:21น.
    ผมก็ขอsoloท่อนกลางแม่นๆด้วยคนครับ  ผมจะแข่งไม่กี่วันนี้แล้วเดี๋ยวไม่ทัน
  • ^^
    Guest
  • 25 ก.พ.2549,10:00น.
    คอร์ดเพลงนี้ยังไม่มีคะแนน
    (อย่าลืม ช่วยกันกดให้คะแนนคอร์ดเพลงที่คุณชื่นชอบ หรือตัดคะแนนคอร์ดที่คุณไม่ชอบได้เลย)
    1)-------6---5---3h5----------------------------------------------------
    2)---3---------------------7-----7s9-----7----------------------------------
    3)-------------------------------------------------6s8------6------------------------------

    1)-----------6---5----3h5-------------------------------------------------------------------------
    2)-------3-------------------------7-----------7--------------------------------------
    3)---------------------------------------6s8-------6--------3--------------------------------------------4)---------------------------------------------------------------------5----------------------

    1)-------6---5---3h5----------------------------------------------------
    2)---3---------------------7-----7s9-----7----------------------------------
    3)-------------------------------------------------6s8----6--------------------------------

    1)--------------------------------------------------------------------------------------
    2)-----------------------------------------------------------------------------------------
    3)------------2--3----5---5s7----7----7s8h7-----------------------
    4)----3s5-------------------------------------------------------------------------------------


    มั้งครับ ลองดู ผมนึกจากที่เล่นเอาครับ ไม่ได้ลองไปด้วยนะ
    ผิดก้อแก้ด้วยเน้อ~
  • ขนมปัง
    Guest
  • 28 ก.พ.2549,02:27น.
    คอร์ดเพลงนี้ยังไม่มีคะแนน
    (อย่าลืม ช่วยกันกดให้คะแนนคอร์ดเพลงที่คุณชื่นชอบ หรือตัดคะแนนคอร์ดที่คุณไม่ชอบได้เลย)
    ไม่รู้ว่าตรงไหม มือกีตาร์ในวงสอนผมมาตั้งแต่ ม.4แล้ว ตอนนี้อยู่ปี1คับ(ผมเล่นเบส) 
    ท่อนIntro /=สไลด์สายนะ \=สไลด์สายกลับนะ
    1)-------------------/6--5--3h5-------------------------------------
    2)-------------3-----------------------6/8--6-----------------------
    3)---------------------------------------------------/7----5----------
    4)----------------------------------------------------------------------
    5)----------------------------------------------------------------------
    6)----------------------------------------------------------------------

    1)----------/6--5----3h5--------------------------------------------
    2)-----3----------------------6---------6-----------------------------
    3)----------------------------------/7-----7\5-----3-----------------
    4)----------------------------------------------------------5-----------
    5)-----------------------------------------------------------------------
    6)-----------------------------------------------------------------------

    1)---------/6---5---3h5----------------------------------------------------------------------
    2)-----3----------------------6/8-----6-------------------------------------------------------
    3)-------------------------------------------/7---5----------2--3--5---/7---7/8--7--------
    4)-------------------------------------------------------/5--------------------------------------
    5)------------------------------------------------------------------------------------------------
    6)------------------------------------------------------------------------------------------------
    ถ้าเพื้ยนไปก็ช่วยๆกันแก้นะคับ ส่วนท่อนโซโล่ ผมลืมไปแล้ว ลองๆเล่นดูคับ
  • ชิว ชิว
    Guest
  • 1 มี.ค.2549,11:50น.
    อยากได้ tab bass เพลง ร็อกเกอร์
    ((ขอคอร์ดกีต้าร์))
  • ชิว ชิว
    Guest
  • 1 มี.ค.2549,12:04น.
    อยากได้ tab bass เพลง ยอม ด้วย
    ((ขอคอร์ดกีต้าร์))
  • ผมเอง
    Guest
  • 5 มี.ค.2549,05:03น.
    6--------------------------------------------------
    5--------------------------------------------------
    4--------------------------------------------------
    3-------------17^--17----------15-------------
    2-----18^---18-------15--17-----17--15---
    1-----18-----------------------------------------

    6----------------------------------------------------------------------------------------------------------
    5----------------------------------------------------------------------------------------------------------
    4----------------------------------------------------------------------------------------------------------
    3-17-17-17-17------17-17-17-----17-17------------17--------------------17-15----17------
    2--------------------15--------------17----------15-17-------15-15--17-15----------17----15-
    1----------------------------------------------------------------------------------------------------------

    6
    5
    4----------------------------
    3--5^-.-.-.-.-.-.---------------17-15~17~15-12~15~12~15--10-12~15~12
    2
    1

    สุดท้ายแกะเองละกันเหนื่อย ไม่ยากหรอก
  • มือ ขวา พี่POP มือ ซ้าย อ.แดง กระโป๊ก STEVE VAI
    Guest
  • 7 มี.ค.2549,16:25น.
    โถ่!!!พวกมรึงเล่น เหรียอารายกานว้า!!เดดียวคนนี้เป็นงี้อีกคนเป้นนี้ งงว่ะบอกตรงๆ
    เราก็เล่นได้น่ะ แต่ขึ้นTapไม่เป้น น่าเสียดาย
    น่าจะเจ๊งก่าพวกนายด้วยน่ะบอกให้
  • momo
    Guest
  • 15 มี.ค.2549,15:11น.
    ใครอยากได้ ทั้ง TAB  solo และ TAB ทุกอย่าง อยู่ใน www.stonemetalfire.com 
  • แมน ลำธาร
    Guest
  • 22 พ.ค.2549,11:22น.
    เพลงนี้ง่ายมากครับผมโซโลแบบไม่ต้องดูก็ได้
  • วง zad
    Guest
  • 26 พ.ค.2549,16:19น.
    ไม่นี้มันเก่งเกินไปป่าว 
  • มือกีตาร์ FZ
    Guest
  • 14 มิ.ย.2549,13:24น.
    ไม่รู้ว่าตรงไหม ผมเพิ่งหัดแกะเพลงคับช่วยติหรือชมทีนะคับ
    ท่อนIntro /=สไลด์สายนะ \=สไลด์สายกลับนะ
    1)-------------------/6--5--3h5-------------------------------------
    2)-------------3-----------------------6s--6-----------------------
    3)-------------------------------------------------------/5--------
    4)----------------------------------------------------------------------
    5)----------------------------------------------------------------------
    6)----------------------------------------------------------------------

    1)----------/6--5----3h5--------------------------------------------
    2)-----3----------------------6---------6-----------------------------
    3)----------------------------------/7-----7s5----3-----------------
    4)----------------------------------------------------------5-----------
    5)-----------------------------------------------------------------------
    6)-----------------------------------------------------------------------

    1)---------/6---5---3h5----------------------------------------------------------------------
    2)-----3----------------------6s8----6-------------------------------------------------------
    3)-------------------------------------------/7---5----------2--3--5---/7---7s8--7-------
    4)-------------------------------------------------------/5--------------------------------------
    5)------------------------------------------------------------------------------------------------
    6)------------------------------------------------------------------------------------------------
    ถ้าเพื้ยนไปก็ช่วยๆกันแก้นะคับ ผมยังเป็นมือใหม่อยู่คับ

  • j.cole]
    Guest
  • 22 มิ.ย.2549,14:03น.
    คอร์ดเพลงนี้ยังไม่มีคะแนน
    (อย่าลืม ช่วยกันกดให้คะแนนคอร์ดเพลงที่คุณชื่นชอบ หรือตัดคะแนนคอร์ดที่คุณไม่ชอบได้เลย)

    the sun ..............
    ง่ายเกินไป

    Intro : Gm/Eb/F/Dm/Gm
    Eb/Cm/D7

    Gm F Cm
    เห็นแววตาก็รู้ฉันเข้าใจ
    Eb F Gm
    สิ่งไหนเธอต้องการ
    Gm F Cm
    ขออะไรก็ยอมให้เหมือนเคย
    Eb F Gm
    ทุกอย่างที่เธอเรียกหา

    Cm7 Dm7
    * แต่มาวันนี้เธอทิ้งกันไป
    Gm
    ไม่เหลือเยื่อใย
    Cm7 Dm7 Gm
    ที่เคยพึงพอใจบัดนี้ไม่มีค่าพอ
    Cm7
    สิ่งที่มีความหมาย
    Dm7 Gm
    มันเหลือเพียงความว่างปล่าว
    Eb/Dm
    เธอยังไม่พอ ยังมาหลอกลวง
    Cm/Bb/F
    เป็นของตาย

    Eb F
    **(มันง่ายเกินไปใช่ไหม ที่ฉันยอม)
    Eb F
    (โว...โว...)
    Dm Gm
    ก็เพราะรักเธอจึงยอมทุ่มเททุกอย่าง
    Eb Cm
    เธอได้ฉันมาง่ายไป ไม่เสียดาย
    D7
    เธอไม่เคยหวงแหน
    D7
    (เป็นการตอบแทน)

    Gm F Cm
    ฉันคอยห่วงใยและเฝ้าเอาใจ
    Eb F Gm
    ไม่อยากให้เธอทิ้งไป
    Gm F Cm
    ฉันยอมหมดแล้วที่ฉันมี
    Eb F Gm
    เพียงอยากให้เธอเห็นใจ

    (ซ้ำ *,**)

    Instru : Eb/F/Gm(3times)
    Eb/F/D7

    (ซ้ำ **,**)

    Eb/F/Dm/Gm
    ง่ายเกินไปใช่ไหม

    Instru : Eb/Cm/D7
    Eb/F/Dm/Gm/Eb/Cm/D7('til fade
    อย่างนี้สิไช j.cole kks (ให้แฟน แลมพาร์ด
  • bron_za01
    Guest
  • 29 มิ.ย.2549,12:48น.
    อยากได้  เพลงพอแล้ว ของThesun อะคับส่งมาที่  Bron_za01hotmail.com จ้k
  • อาฉง
    Guest
  • 5 ก.ค.2549,13:27น.
    อย่าพยายามแสดงความมั่วออกมาเลย 
  • โอ๊ด
    Guest
  • 7 ก.ค.2549,18:20น.
    ความคิดเห็นที่30อย่าปากดีคับ
  • unknow
    Guest
  • 10 ก.ค.2549,15:47น.
    โอ๊ด 124.120.203.197 [ วันศุกร์ ที่ 7 กรกฎาคม 2549 เวลา 18:20 น. ] [ x ] ผู้ตอบคนที่ 39

    ความคิดเห็นที่30อย่าปากดีคับ

    ใช่วะ เก่งจิงทำไมทำ tab ไม่เปนวะ
  • บูรพา
    Guest
  • 16 ก.ค.2549,13:35น.
    เราเห็นด้วยกะนาย ว่ะ โอ๊ด  อย่างมากมรันก็แค่กีต้าร์โปร่งซักตัวเล่นโชว์สาวล่ะว่ะ น่าสมเพส 
  • อาฟง
    Guest
  • 19 ก.ค.2549,14:06น.
    อยากเล่นได้เชิญเลยนะhttp://www.stonemetalfire.com/
    โหลดโปรแกรมมาดูเอาครับ ชัวร์
    ไม่อยากโหลดเด่วว่างๆผมโพสให้ครับ
    ((ขอคอร์ดกีต้าร์))
  • อาฟง
    Guest
  • 19 ก.ค.2549,14:07น.
    อยากเล่นได้เชิญเลยนะhttp://www.stonemetalfire.com/
    โหลดโปรแกรมมาดูเอาครับ ชัวร์
    ไม่อยากโหลดเด่วว่างๆผมโพสให้ครับ
    ((ขอคอร์ดกีต้าร์))
  • ฮาร์ทบีด
    Guest
  • 24 ก.ค.2549,18:15น.
    แกะโน๊ตเบสให้บ้างครับ ผมอยากเพลงนี้มากๆ ชอบคุณมากครับถ้าแกะให้ 
    ((ขอคอร์ดกีต้าร์))
  • ootto_langkao
    Guest
  • 27 ก.ค.2549,12:29น.
    เสียงกีตาร์จะเล่นพร้อมคีย์บอร์ดใช่ป่ะ ลองเล่นดูละกัน
    เห็นแววตา...
    10--------------------8--------------------------10
    11-11-10-10-8-8-8-8-8-8-10-10-11-11---11
    12-12-10-10-8-8----8-8-8-10-10-12
    ปามาณเนี้ย
  • อาฟง
    Guest
  • 31 ส.ค.2549,20:44น.
    คอร์ดเพลงนี้ยังไม่มีคะแนน
    (อย่าลืม ช่วยกันกดให้คะแนนคอร์ดเพลงที่คุณชื่นชอบ หรือตัดคะแนนคอร์ดที่คุณไม่ชอบได้เลย)
    -----18-------------------------------------------------------------------------------
    -----18-----18----17----17h15---------17---------------------15-----------------------------------
    --------------17----17----17h15---------17--------15---17--------------17----15------------------------------------------------------------17--------17--------------------17---------------
    ------------------------------------------------------------------------------------
    ------------------------------------------------------------------------------------

    ท่อนแรกครับ
  • อาฟง
    Guest
  • 31 ส.ค.2549,20:52น.
    คอร์ดเพลงนี้ยังไม่มีคะแนน
    (อย่าลืม ช่วยกันกดให้คะแนนคอร์ดเพลงที่คุณชื่นชอบ หรือตัดคะแนนคอร์ดที่คุณไม่ชอบได้เลย)
    เง้อ....ใหม่ครับใหม่ ^^"
    -----18-------------------------------------------------------------------------------
    -----18-----18----17----17h15---------17---------------------15-----------------------------------
    --------------17----17----17h15---------17--------15---17--------------17----15--------------
    -----------------------------------------17--------17--------------------17---------------
  • อาฟ
    Guest
  • 31 ส.ค.2549,20:57น.
    คอร์ดเพลงนี้ยังไม่มีคะแนน
    (อย่าลืม ช่วยกันกดให้คะแนนคอร์ดเพลงที่คุณชื่นชอบ หรือตัดคะแนนคอร์ดที่คุณไม่ชอบได้เลย)
    ท่อนสองครับ

    ------------------------------------------------------------------------------------
    ------------------------------------15------------------17------------15--------17-----------------
    ------------------------------------15------------------17------------15--------17------------------
    ------15h17-----17--17--17---------17-17-17--------17-17-------17--------17-17---------
    ------------------------------------------------------------------------
    ------------------------------------------------------------------------------------
  • อาฟง
    Guest
  • 31 ส.ค.2549,21:07น.
    คอร์ดเพลงนี้ยังไม่มีคะแนน
    (อย่าลืม ช่วยกันกดให้คะแนนคอร์ดเพลงที่คุณชื่นชอบ หรือตัดคะแนนคอร์ดที่คุณไม่ชอบได้เลย)
    ท่อนสองต่อ

    ------------------------------------------------------------------------------------
    ----------15-----17----17^----15---15h17---15-------------15--------------15--------------------
    ----------15-----17----17^----15---15h17---15-------------15--------------15-----------
    -----17---------------------------------------------------17--15--------17--17----------------
    ------------------------------------------------------------------------------------
    ------------------------------------------------------------------------------------

  • อาฟง
    Guest
  • 31 ส.ค.2549,21:17น.
    คอร์ดเพลงนี้ยังไม่มีคะแนน
    (อย่าลืม ช่วยกันกดให้คะแนนคอร์ดเพลงที่คุณชื่นชอบ หรือตัดคะแนนคอร์ดที่คุณไม่ชอบได้เลย)


    -----------------------------------------------------------------------------------------
    -----------------------------------------------------------------------------------------
    -----5-(จิ้มเฟต 17 )--17----15h17h15-------15---12h15s10---10s12----12---15--12---
    ------------------------------------------------17-----------------------------------------
    -----------------------------------------------------------------------------------------
    -----------------------------------------------------------------------------------------
  • Guitar Life
    Guest
  • 25 ก.ย.2549,04:23น.
    หุ หุ ชอบ มากๆ
  • 3
    Guest
  • 27 ก.ย.2549,00:57น.
    มีแต่
  • Guitar - Life
    Guest
  • 29 ก.ย.2549,17:59น.
    คอร์ดเพลงนี้ยังไม่มีคะแนน
    (อย่าลืม ช่วยกันกดให้คะแนนคอร์ดเพลงที่คุณชื่นชอบ หรือตัดคะแนนคอร์ดที่คุณไม่ชอบได้เลย)
                     --------------------18--17----15H17-----------------------------------------------
    -----------15-----------------------------------18---------18-------------------------
    --------------------------------------------------------17^-------17~--15---12~----
    ---------------------------------------------------------------------------------------------
    ----------------------------------------------------------------------------------------------
    ----------------------------------------------------------------------------------------------
    ต่อจากด้านบน นะ ครับ

    ปล. ต้อง ขอบ คุณ ท่าน ----- อ . แอด ------ นะครับ
  • โอ๊ด
    Guest
  • 24 ต.ค.2549,07:34น.
    การที่คนมาโพสว่า เพลงนี้กระจอกแล้วพวกที่โพสว่า พวกนายแกะกันมั่วๆ ผมอยากเห็นอะนะว่าคนที่พูดคนที่ดูถูกอ่าคับมีจิตสำนึกไหม ว่าคนที่เค้าแกะมาให้เค้าอาจจะไม่ตง เค้าก็มีน้ำใจนะครับมาเสียเวลาเขียนให้ดูกัน พวกที่ชอบติชอบด่าคนที่โพสTabผมถือว่าคุณเป็นผู้เล่นดนตรีที่ไม่ได้รักในดนตรีผมเล่นดนตรีมา4ปีกว่า อาจารย์ผมสอนว่าถ้าเล่นดนตรีอย่าไปดูถูกคนอื่นมันจะเป็นการดีอะคับ
    ปล.อยากให้ปรับทัสนะคติกันใหม่นะครับ
  • เป้ย
    Guest
  • 31 ต.ค.2549,08:51น.
    ใช่ ครับ เหอๆ คิด เหมือน ผม...
  • Ben+z
    Guest
  • 12 พ.ย.2549,09:44น.
    งงงงงงงงงงงงงงงงงงงงงงงงงงงงงงงงงงงงงงงงงงงงงงงงงงงงงงงงงงงงงงงงงงงงงงงงงงงงงงงงงงงงงงงงงงงงงงงงงงงงงงงงงงงงงงงงงงงงงงงงงงงงงงงงงงงงงงงงงงงงงงงงงงงงงงงงงงงงงงงงงงงงงงงงงงงงงงงงงงงงงงงงงงงงงงงงงงงงงงงงงงงงงงงงงงงงงงงงงงงงงงงงงงงงงงงงงงงงงงงงงงงงงงงงงงงงงงงงงงงงงงงงงงงงงงงงงงงงงงงงงงงงงงงงงงงงงงงงงงงงงงงงงงงงงงงงงงงงงงงงงงงงงงงงงงงงงงงงงงงงงงงงงงงงงงงงงงงงงงงงงงงงงงงงงงงงงงงงงงงงงงงงงงงงงงงงงงงงงงงงงงงงงงงงงงงงงงงงงงงงงงงงงงงงงงงงงงงงงงงงงงงงงงงงงงงงงงงงงงงงงงงงงงงงงงงงงงงงงงงงงงงงงงงงงงงงงงงงงงงงงงงงงงงงงงงงงงงงงงงงงงงงงงงงงงงงงงงงงงงงงงงงงงงงงงงงงงงงงงงงงงงงงงงงงงงงงงงงงงงงงงงงงงงงงงงงงงงงงงงงงงงงงงงงงงงงงงงงงงงงงงงงงงงงงงงงงงงงงงงงงงงงงงงงงงงงงงงงงงงงงงงงงงงงงงงงงงงงงงงงงงงงงงงงงงงงงงงงงงงงงงงงงงงงงงงงงงงงงงงงงงงงงงงงงงงงงงงงงงงงงงงงงงงงงงงงงงงงงงงงงงงงงงงงงงงงงงงงงงงงงงงงงงงงงงงงงงงงงงงงงงงงงงงงงงงงงงงงงงงงงงงงงงงงงงงงงงงงงงงงงงงงงงงงงงงงงงงงงงงงงงงงงงงงงงงงงงงงงงงงงงงงงงงงงงงงงงงงงงงงงงงงงงงงงงงงงงงงงงงงงงงงงงงงงงงงงงงงงงงงงงงงงงงงงงงงงงงงงงงงงงงงงงงงงงงงงงงงงงงงงงงงงงงงงงงงงงงงงงงงงงงงงงงงงงงงงงงงงงงงงงงงงงงงงงงงงงงงงงงงงงงงงงงงงงงงงงงงงงงงงงงงงงงงงงงงงงงงงงงงงงงงงงงงงงงงงงงงงงงงงงงงงงงงงงงงงงงงงงงงงงงงงงงงงงงงงงงงงงงงงงงงงงงงงงงงงงงงงงงงงงงงงงงงงงงงงงงงงงงงงงงงงงงงงงงงงงงงงงงงงงงงงงงงงงงงงงงงงงงงงงงงงงงงงงงงงงงงงงงงงงงงงงงงงงงงงงงงงงงงงงงงงงงงงงงงงงงงงงงงงงงงงงงงงงงงงงงงงงงงงงงงงงงงงงงงงงงงงงงงงงงงงงงงงงงงงงงงงงงงงงงงงงงงงงงงงงงงงงงงงงงงงงงงงงงงงงงงงงงงงงงงงงงงงงงงงงงงงงงงงงงงงงงงงงงงงงงงงงงงงงงงงงงงงงงงงงงงงงงงงงงงงงงงงงงงงงงงงงงงงงงงงงงงงงงงงงงงงงงงงงงงงงงงงงงงงงงงงงงงงงงงงงงงงงงงงงงงงงงงงงงงงงงงงงงงงงงงงงงงงงงงงงงงงงงงงงงงงงงงงงงงงงงงงงงงงงงงงงงงงงงงงงงงงงงงงงงงงงงงงงงงงงงงงงงงงงงงงงงงงงงงงงงงงงงงงงงงงงงงงงงงงงงงงงงงงงงงงงงงงงงงงงงงงงงงงงงงงงงงงงงงงงงงงงงงงงงงงงงงงงงงงงงงงงงงงงงงงงงงงงงงงงงงงงงงงงงงงงงงงงงงงงงงงงงงงงงงงงงงงงงงงงงงงงงงงงงงงงงงงงงงงงงงงงงงงงงงงงงงงงงงงงงงงงงงงงงงงงงงงงงงงงงงงงงงงงงงงงงงงงงงงงงงงงงงงงงงงงงงงงงงงงงงงงงงงงงงงงงงงงงงงงงงงงงงงงงงงงงงงงงงงงงงงงงงงงงงงงงงงงงงงงงงงงงงงงงงงงงงงงงงงงงงงงงงงงงงงงงงงงงงงงงงงงงงงงงงงงงงงงงงงงงงงงงงงงงงงงงงงงงงงงงงงงงงงงงงงงงงงงงงงงงงงงงงงงงงงงงงงงงงงงงงงงงงงงงงงงงงงงงงงงงงงงงงงงงงงงงงงงงงงงงงงงงงงงงงงงงงงงงงงงงงงงงงงงงงงงงงงงงงงงงงงงงงงงงงงงงงงงงงงงงงงงงงงงงงงงงงงงงงงงงงงงงงงงงงงงงงงงงงงงงงงงงงงงงงงงงงงงงงงงงงงงงงงงงงงงงงงงงงงงงงงงงงงงงงงงงงงงงงงงงงงงงงงงงงงงงงงงงงงงงงงงงงงงงงงงงงงงงงงงงงงงงงงงงงงงงงงงงงงงงงงงงงงงงงงงงงงงงงงงงงงงงงงงงงงงงงงงงงงงงงงงงงงงงงงงงงงงงงงงงงงงงงงงงงงงงงงงงงงงงงงงงงงงงงงงงงงงงงงงงงงงงงงงงงงงงงงงงงงงงงงงงงงงงงงงงงงงงงงงงงงงงงงงงงงงงงงงงงงงงงงงงงงงงงงงงงงงงงงงงงงงงงงงงงงงงงงงงงงงงงงงงงงงงงงงงงงงงงงงงงงงงงงงงงงงงงงงงงงงงงงงงงงงงงงงงงงงงงงงงงงงงงงงงงงงงงงงงงงงงงงงงงงงงงงงงงงงงงงงงงงงงงงงงงงงงงงงงงงงงงงงงงงงงงงงงงงงงงงงงงงงงงงงงงงงงงงงงงงงงงงงงงงงงงงงงงงงงงงงงงงงงงงงงงงงงงงงงงงงงงงงงงงงงงงงงงงงงงงงงงงงงงงงงงงงงงงงงงงงงงงงงงงงงงงงงงงงงงงงงงงงงงงงงงงงงงงงงงงงงงงงงงงงงงงงงงงงงงงงงงงงงงงงงงงงงงงงงงงงงงงงงงงงงงงงงงงงงงงงงงงงงงงงงงงงงงงงงงงงงงงงงงงงงงงงงงงงงงงงงงงงงงงงงงงงงงงงงงงงงงงงงงงงงงงงงงงงงงงงงงงงงงงงงงงงงงงงงงงงงงงงงงงงงงงงงงงงงงงงงงงงงงงงงงงงงงงงงงงงงงงงงงงงงงงงงงงงงงงงงงงงงงงงงงงงงงงงงงงงงงงงงงงงง่ายเกินไป
  • อาจารย์ สมุทร์ ดวงมณีรัตนชัย
    Guest
  • 25 พ.ย.2549,14:57น.
    คอร์ดเพลงนี้ยังไม่มีคะแนน (อย่าลืม ช่วยกันกดให้คะแนนคอร์ดเพลงที่คุณชื่นชอบ หรือตัดคะแนนคอร์ดที่คุณไม่ชอบ)
    zต้องผม ป๊อปเดอะ ซันสอนมากับมือ

    มันต้องอย่างนี้
    6-------------------------------------------------------------------------------------------------
    5-------------------------------------------------------------------------------------------------
    4-------------------------------------------------------------------------------------------------
    3----7-----------------------------------5-7-5------------------------------------------------
    2--------10-11-10--8-10-6-8--6-----------------------------------------------------------
    1------------------------------------------------------------------------------------------------

    6--------------------------------------------------
    5---------------------------------------------------
    4-------------------------------------------------5
    3----7--------------------------7-----7-5--3
    2-------10-11-10-8-10-6-----6------------
    1---------------------------------------------------

    6-------------------------------------------------------------------------------------------------
    5-----------------------/8---------------------------------5-----------------------------------------
    4-------------------------------------------------------------------------------------------------
    3----7-----------------------------------5-7-5------------------------------------------------
    2--------10-11-10--8-10-6-8--6-----------------------------------------------------------
    1------------------------------------------------------5------------------------------------------

    6--------------5--------------------
    5----------------------------------
    4--------5-----------------------
    3-----------2-3--5--7---------
    2------------------------------

    ดอป C เป็นE นะ โทรถามได้บอกว่าขอสาย แป๊ะ นะ หลานป๊อปเองจด

  • อาจารย์ สมุทร์ ดวงมณีรัตนชัย
    Guest
  • 25 พ.ย.2549,14:59น.
    คอร์ดเพลงนี้ยังไม่มีคะแนน (อย่าลืม ช่วยกันกดให้คะแนนคอร์ดเพลงที่คุณชื่นชอบ หรือตัดคะแนนคอร์ดที่คุณไม่ชอบ)
    zต้องผม ป๊อปเดอะ ซันสอนมากับมือ

    มันต้องอย่างนี้
    6-------------------------------------------------------------------------------------------------
    5-------------------------------------------------------------------------------------------------
    4-------------------------------------------------------------------------------------------------
    3----7-----------------------------------5-7-5------------------------------------------------
    2--------10-11-10--8-10-6-8--6-----------------------------------------------------------
    1------------------------------------------------------------------------------------------------

    6--------------------------------------------------
    5---------------------------------------------------
    4-------------------------------------------------5
    3----7--------------------------7-----7-5--3
    2-------10-11-10-8-10-6-----6------------
    1---------------------------------------------------

    6-------------------------------------------------------------------------------------------------
    5-----------------------/8---------------------------------5-----------------------------------------
    4-------------------------------------------------------------------------------------------------
    3----7-----------------------------------5-7-5------------------------------------------------
    2--------10-11-10--8-10-6-8--6-----------------------------------------------------------
    1------------------------------------------------------5------------------------------------------

    6--------------5--------------------
    5----------------------------------
    4--------5-----------------------
    3-----------2-3--5--7---------
    2------------------------------

    ดอป C เป็นE นะ โทรถามได้บอกว่าขอสาย แป๊ะ นะ หลานป๊อปเองจด 0896365751

  • ----------
    Guest
  • 28 ธ.ค.2549,01:36น.
    www.musicza.com ลองๆ หา ดู ครับ
  • อยากฟังอ่า
    Guest
  • 29 ม.ค.2550,17:29น.
    มีเพลงให้ฟังไหมอะครับ
  • นาย เฟอร์
    Guest
  • 2 ก.พ.2550,20:24น.
    มั่วชิหายเลย
  • แป้ง 1/4รัตนฯ
    Guest
  • 7 ก.พ.2550,15:01น.
    ชอบเพลงนี้มาก
  • deknarok
    Guest
  • 7 ก.พ.2550,22:52น.
    จากที่ดูแทปในเว็ป http://www.stonemetalfire.com/ ที่ให้มา ของคุณคนที่26 น่าจะใกล้เคียงสุดครับ ไม่เชื่อโหลดมาดูได้
  • กีตาร์เย็นชา
    Guest
  • 13 ก.พ.2550,21:36น.
    Intro เริ่มที่สาย 4 เฟร็ต 12 ครับ ชัว เพราะว่าพี่ป๊อบ เดอะซันบอกมาครับ เพราะเป้นซี้กับอาจารย์ผม
    ไม่เชื่อโทมาได้ 0850699190 ผมจะบอกให้เลย
  • 1/4
    Guest
  • 14 ก.พ.2550,14:57น.
    ชอบวงดำน้ำมากๆคะที่ร้องเพลงนี้งานสารสิทธิ์ปลื้มมากๆคะง่ายเกินไปเป็นเพลงที่เพราะมั๊กมาก
  • ผู้หัดเล่น
    Guest
  • 10 มี.ค.2550,12:59น.
    ใครแกะเพลงสู้ได้บ้างช่วยแกะให้หน่อย พึ่งแกะไปได้นิดเดียว
  • คน
    Guest
  • 21 มี.ค.2550,02:03น.
    ไม่เห็นต้องดูแท็บเลย แกะเอาก็ได้ ง่ายนิดเดียวเอง ( อยากให้ใช้ความรู้สึกและจิตวิญญาณในการเล่นและแกะเพลงมากกว่านะ)
  • Spyro Gyra
    Guest
  • 23 เม.ย.2550,22:33น.
    ใช่ๆ ครับ อิมโพไว ตาม key เลย จะได้ ฝึกคิด และ สร้างสรรค์ อะไร ใหม่ๆ ออก มา ครับ -..-
    อย่าปิด กัน ตัว เอง
  • ก็คนมันรวยหงะ
    Guest
  • 22 พ.ค.2550,16:52น.
    ห่วยแตก
  • PHET วง ชำเรือง
    Guest
  • 3 มิ.ย.2550,11:34น.
    ผมโซโล่ได้นะเพลงนี้แล้วก็ชอบด้วย

  • Guest
  • 14 มิ.ย.2550,15:20น.
    ขอบคุนนะ
  • ต้า
    Guest
  • 14 มิ.ย.2550,15:31น.
    ขอบคุน เด็กบางจุ๊บๆ
  • เด็กฝึกหัด
    Guest
  • 30 ก.ค.2550,16:23น.
    สอนวิธีการอ่านsoloหน่อยคับผมเพิ่งหัดเล่นกีต้าร์อ่ะคับอยากsoloเป็นอ่ะคับยังไงก็ช่วยกรุณาบอกทีนะคับอยากรู้จริงๆ
  • แว โก-ลก
    Guest
  • 1 ต.ค.2550,12:13น.
    เพลงนี้มันมากเวลาผมเครียดผมชอบเล่นเพลงนี้มันทำไห้ผมรู้สึกดีมาก
  • เต้
    Guest
  • 3 ต.ค.2550,14:35น.
    ผมเพิ่งหัดเล่น บอกวิธีโซโลง่ายหน่อยครับ ((ขอคอร์ดกีต้าร์))
  • ไก่
    Guest
  • 3 พ.ย.2550,11:46น.
    ใครรู้ว่าเพลง Are you ready to rock โหลดได้ที่ไหนช่วยบอกทีครับๆๆๆๆๆๆๆๆๆๆๆ
    ขอร้องๆๆๆๆๆๆๆๆๆๆๆๆๆๆๆๆๆๆ
  • โจ้ สุรินทร์
    Guest
  • 14 พ.ย.2550,15:38น.
    แล้วฟังเพลงมานตรงไหนอ่า
  • ดิวจิ อิอิ
    Guest
  • 19 ธ.ค.2550,22:04น.
    ลองเข้า Google แล้วพิม หิน เหล็ก ไฟ ตามนี้ เลย มันจะ ขึ้น เวปของ หินเหล็กไฟ ให้ ไปที่ Download น่ครับ มีหลายเพลง เลย ลองไปหา ดู ครับ
  • มือกีต้าร์ค่ะ
    Guest
  • 23 มี.ค.2551,13:36น.
    ((ขอคอร์ดกีต้าร์))
1

ขอเชิญร่วมแสดงความคิดเห็นครับ

คลิกที่รูป เพื่อแทรกรูปลงในข้อความ
  • Member :
    username
    password
  • Not a member :
    name
    email
Loading