คอร์ดเพลง เนื้อเพลง ฟังเพลง

คอร์ดเพลง ซมซาน

โลโซ

Print

Intro : Ab/Fm/Db/Eb ( 2 ครั้ง )

Ab Fm Db Eb
เกิดมาไม่เคยเจอ ใครเหมือนเธอ หลับฝันละเมอ ภาพเธอคอยหลอนทุกคืน
Ab Fm Db Eb
หลับลงคราใด อยากนอนไม่ยอมตื่น ก็ทุกค่ำคืน เจอเธอที่ปลายฟ้าไกล

Ab Fm Db Eb
ก็ได้แต่เพ้อ แต่ฝันลมลม ก็หลงชื่นชม โดยเธอไม่รู้ตัว
Ab Fm Db Eb
เจอเธอทีไร จิตใจเต้นรัว ฉันกลัวฉันกลัว กลัวเธอไม่สนใจ

Fm Cm Db Eb
* อยากเดินเข้าไป บอกว่ารักเธอ เวลาที่เจอที่เธอส่งยิ้มมา
Fm Cm Db Eb Ab
เหมือนดั่งโลกนี้ สดใสขึ้นทันตา ในช่วงเวลาที่ต้องการใคร เข้าใจสักคน

Instru : Ab/Fm/Db/Eb ( 2 ครั้ง )

Fm Cm Db Eb
อยากเดินเข้าไป บอกว่ารักเธอ เวลาที่เจอที่เธอส่งยิ้มมา
Fm Cm Db Eb
เหมือนดั่งโลกนี้ สดใสขึ้นทันตา ในช่วงเวลาที่ต้องการใคร

Ab Fm Db Eb
หากเธอมีใจ ก็บอกกันสักหน่อย อย่าให้ฉันคอย คอยเธออย่างนี้เลย
Ab Fm Db Eb
ให้คอยนานๆ มันซมซานรู้ไหมเอ่ย ยิ่งเธอทำเฉย ฉันเองจะบ้าตาย

( ซ้ำ * )

Ending : Ab/Fm/Db/Eb ( 2 ครั้ง )
http://www.musicatm.com/thai/คอร์ดเพลง-ซมซาน-1113.html
ดาวน์โหลด Full Song
กด *424243181696584
กด *424243181696584
ดาวน์โหลด Truetone
กด *424218181696584
กด *424218181696584
กด *424218181696584
* อัตราค่าบริการดาวน์โหลด Fullsong, Truetone, Poly, Mono : 35 บาท/เพลง
ส่งเพลงนี้ให้เพื่อน
วันที่โพสต์ : 13 ม.ค.2547,21:35น.
จำนวนผู้ชม : 1142420 คน / แสดงความคิดเห็น : 216 ครั้ง
โพสต์โดย


จาก: Zull
Guest
เพลงฮิต
เพลงใหม่
เพลงแนะนำ
Fanpage
ข่าวสารจากเว็บครับ
เลือกแสดงเฉพาะ :

  • KING
    Guest
  • 23 ก.ย.2548,18:16น.
    คอร์ดเพลงเวอร์ชั่นนี้ ได้รับคะแนนโวทสูงที่สุด (จากเวอร์ชั่นทั้งหมดด้านล่าง)
    INTRO: ซมซานนะคราบผม:โดย  KING
    4: ---------------------6-------------------------------------------------6---------------------------6
    5: ------------------------8--------8--6--3--4---------4/8---------------8-----6-----------8------8--5
    6 :-----4------4/8------------------------------------------------------------------------------------------


    99.99% นะคราบผม
    ถูกผิดยังไงอย่าว่ากันนะคราบผม ผมอายุแค่ 14 ปีเองนะ
  • 4530......
    Guest
  • 8 ก.พ.2547,15:23น.
      มาคนแรกรึเรา55+ ไม่มีไรติ
  • 401 ?
    Guest
  • 23 ก.พ.2547,17:57น.
        
  • 401 ?
    Guest
  • 23 ก.พ.2547,17:57น.
        
  • THE NICE
    Guest
  • 1 มี.ค.2547,15:20น.
    ขอtab หน่อยคับ
  • 7 พ.ย.2556,22:11น. 124.122.55.82
    ผมเพิ่งหัดเล่นกีต้า ได้เพลงนี้ที่ชอบไปลองเล่น เพลินดี ขอบคุณมากครับ
  • tod 035335960
    Guest
  • 2 มี.ค.2547,19:44น.
    คอร์ดเพลงนี้ยังไม่มีคะแนน
    (อย่าลืม ช่วยกันกดให้คะแนนคอร์ดเพลงที่คุณชื่นชอบ หรือตัดคะแนนคอร์ดที่คุณไม่ชอบได้เลย)
     
    ((อัพเดทแหล่งทดลองฟัง)) ((อัพเดทคอร์ดกีต้าร์)) ((ขอคอร์ดกีต้าร์))
  • ภูมิ
    Guest
  • 2 มี.ค.2547,22:39น.
    เพลงนี้คือสุดยอดเพราะโคดๆ
  • ทศพล
    Guest
  • 7 มี.ค.2547,13:29น.
    เพลงนี้เก่าไปหน่อยแต่ก็เป็นเพลงอมตะ  
  • โรคจิตนิดๆชีวิตจาสดใสนะคับ
    Guest
  • 8 มี.ค.2547,12:02น.
    ชอบรุมโซมมากคับ
  • โรคจิตนิดๆชีวิตจาสดใสนะคับ
    Guest
  • 8 มี.ค.2547,12:03น.
    ชอบรุมโซมมากคับ        
  • ออฟเด็กราชบุรี
    Guest
  • 15 มี.ค.2547,11:14น.
    สร้างสรรสังคมไทยหน่อยครับ 
  • เด็ก
    Guest
  • 15 มี.ค.2547,15:18น.
    fu7
  • Loso
    Guest
  • 30 มี.ค.2547,15:15น.
    Intro
    4:-----------------6-------------------------6--------------------
    5:--------------------8sl3-3-4-----4sl6----6-------6--------
    6:---4-------6-8------------------------------------------8-6-4
    ผิดก็แก้ให้หน่อยแล้วกัน
  • kero--Dek--s.k.
    Guest
  • 31 มี.ค.2547,15:52น.
    ขอโซโลหน่อยได้เปล่า            
  • วาคิมหัวรถจักร
    Guest
  • 28 เม.ย.2547,00:09น.
    ขอโซโลหน่อยจิครับ
  • Loso
    Guest
  • 3 พ.ค.2547,21:14น.

    4:-----------------6-------------------------6----------------------6--6---
    5:--------------------8sl3-3-4-----4sl6----6-------6-----6-8---8-----
    6:---4-------6-8-----------------------------------------6-8---------------

    2:-----------9----------------9---------------------9---------------------9-11-9--------------
    3:-------------10-----8-10---10-5--6---6sl8----10-8-------8-10-----------10-8-10--
    4:----8-10---------------------------------------------------------------------------------------
    มั่วนะคร้าบ
  • Loso
    Guest
  • 19 มิ.ย.2547,19:42น.
    คอร์ดเพลงนี้ยังไม่มีคะแนน
    (อย่าลืม ช่วยกันกดให้คะแนนคอร์ดเพลงที่คุณชื่นชอบ หรือตัดคะแนนคอร์ดที่คุณไม่ชอบได้เลย)
    okปะคับ
    ((อัพเดทคอร์ดกีต้าร์))
  • sexy_boy
    Guest
  • 11 ก.ค.2547,21:43น.
    sl คืออะไรครับ
  • delivery
    Guest
  • 12 ก.ค.2547,11:43น.
    sl คือ รูดสายคับ (ไม่รู้นะ แต่มานเปงความคิดเรานะ) สมมุติ

    6:----8sl10- = เรากดช่องที่ 8 เเล้วรูดไปช่องที่ 10คับ
  • r
    Guest
  • 1 ส.ค.2547,19:31น.
    บอกจังหวะดีดหน่อยสิ 
  • นินนิน
    Guest
  • 7 ส.ค.2547,22:11น.
    ขอท่อนโซโลแบบเป๊ะๆเลยอ่ะมีรึเปล่าครับ พอดีต้องรีบใช้ไม่มีเวลาแกะครับถ้ายังไงส่งมาให้ตามที่อยู่นี้จะเป็นพระคุณมากๆเลยครับ
  • อนาคตนักดนตรี
    Guest
  • 19 ส.ค.2547,11:29น.
    ขอตอนที่ Intro อ่ะครับ อยากเล่น อ่ าๆ ครับ
    ขอบคุณครับ
  • อนาคตนักดนตรี
    Guest
  • 19 ส.ค.2547,11:29น.
    ขอตอนที่ Intro อ่ะครับ อยากเล่น อ่ าๆ ครับ
    ขอบคุณครับ
  • อนาคตนักดนตรี
    Guest
  • 19 ส.ค.2547,11:32น.
    ขอตอนที่ Intro อ่ะครับ อยากเล่น อ่ าๆ ครับ
    ขอบคุณครับ
  • ..
    Guest
  • 31 ส.ค.2547,17:41น.
    เอ่อ.                                      
  • Paul
    Guest
  • 17 ก.ย.2547,21:12น.
    คอร์ดเพลงนี้ยังไม่มีคะแนน
    (อย่าลืม ช่วยกันกดให้คะแนนคอร์ดเพลงที่คุณชื่นชอบ หรือตัดคะแนนคอร์ดที่คุณไม่ชอบได้เลย)
    คอร์ดนอกเพลงซมซาน

    ซมซาน
    Artist : โลโซ


    Intro : G/Em/C /D (2 ครั้ง )

    G Bm C D
    เกิดมาไม่เคยเจอ ใครเหมือนเธอ หลับฝันละเมอ ภาพเธอคอยหลอนทุกคืน
    G Bm C D
    หลับลงคราใด อยากนอนไม่ยอมตื่น ก็ทุกค่ำคืน เจอเธอที่ปลายฟ้าไกล

    G Em C D
    ก็ได้แต่เพ้อ แต่ฝันลมลม ก็หลงชื่นชม โดยเธอไม่รู้ตัว
    G Em C D
    เจอเธอทีไร จิตใจเต้นรัว ฉันกลัวฉันกลัว กลัวเธอไม่สนใจ

    Em Bm C D
    * อยากเดินเข้าไป บอกว่ารักเธอ เวลาที่เจอที่เธอส่งยิ้มมา
    Bm Em C D G
    เหมือนดั่งโลกนี้ สดใสขึ้นทันตา ในช่วงเวลาที่ต้องการใคร เข้าใจสักคน

    Instru : G/Em/C/D (2 ครั้ง )

    Em Bm C D
    อยากเดินเข้าไป บอกว่ารักเธอ เวลาที่เจอที่เธอส่งยิ้มมา
    Em Bm C D
    เหมือนดั่งโลกนี้ สดใสขึ้นทันตา ในช่วงเวลาที่ต้องการใคร

    G Em C D
    หากเธอมีใจ ก็บอกกันสักหน่อย อย่าให้ฉันคอย คอยเธออย่างนี้เลย
    G Em C D
    ให้คอยนานๆ มันซมซานรู้ไหมเอ่ย ยิ่งเธอทำเฉย ฉันเองจะบ้าตาย

    ( ซ้ำ * )

    Ending : G/Em/C/D ( 2 ครั้ง

  • นัด
    Guest
  • 19 เม.ย.2548,12:45น.
    อยากได้โซโลท่อนสุดท้ายครายมีขอหน่อยงับ 
    ((ขอคอร์ดกีต้าร์))
  • นัด
    Guest
  • 19 เม.ย.2548,12:45น.
    อยากได้โซโลท่อนสุดท้ายครายมีขอหน่อยงับ 
    ((ขอคอร์ดกีต้าร์))
  • posh เด็กเมืองช้าง
    Guest
  • 12 พ.ค.2548,07:13น.
    ยากได้ท่อน solo มากมากกกกกกกกกกกกก      
    ((ขอคอร์ดกีต้าร์))
  • 23 ก.ค.2548,11:05น.
    คอร์ดเพลงนี้ยังไม่มีคะแนน
    (อย่าลืม ช่วยกันกดให้คะแนนคอร์ดเพลงที่คุณชื่นชอบ หรือตัดคะแนนคอร์ดที่คุณไม่ชอบได้เลย)
    ซมซาน 
    Artist : โลโซ


    Intro : G/Em/C /D (2 ครั้ง )

    G Em C D
    เกิดมาไม่เคยเจอ ใครเหมือนเธอ หลับฝันละเมอ ภาพเธอคอยหลอนทุกคืน
    G Em C D
    หลับลงคราใด อยากนอนไม่ยอมตื่น ก็ทุกค่ำคืน เจอเธอที่ปลายฟ้าไกล

    G Em C D
    ก็ได้แต่เพ้อ แต่ฝันลมลม ก็หลงชื่นชม โดยเธอไม่รู้ตัว
    G Em C D
    เจอเธอทีไร จิตใจเต้นรัว ฉันกลัวฉันกลัว กลัวเธอไม่สนใจ

    Em Bm C D
    * อยากเดินเข้าไป บอกว่ารักเธอ เวลาที่เจอที่เธอส่งยิ้มมา
    Em Bm C D G
    เหมือนดั่งโลกนี้ สดใสขึ้นทันตา ในช่วงเวลาที่ต้องการใคร เข้าใจสักคน

    Instru : G/Em/C/D (2 ครั้ง )

    Em Bm C D
    อยากเดินเข้าไป บอกว่ารักเธอ เวลาที่เจอที่เธอส่งยิ้มมา
    Em Bm C D
    เหมือนดั่งโลกนี้ สดใสขึ้นทันตา ในช่วงเวลาที่ต้องการใคร

    G Em C D
    หากเธอมีใจ ก็บอกกันสักหน่อย อย่าให้ฉันคอย คอยเธออย่างนี้เลย
    G Em C D
    ให้คอยนานๆ มันซมซานรู้ไหมเอ่ย ยิ่งเธอทำเฉย ฉันเองจะบ้าตาย

    ( ซ้ำ * )

    Ending : G/Em/C/D ( 2 ครั้ง

    อยากให้เล่นคอร์ดที่ถูกกันเลยส่งมาให้
  • KING
    Guest
  • 24 ส.ค.2548,16:22น.
    ขอ solo  หน่อยคราบ    
  • กอล์ฟ
    Guest
  • 31 ส.ค.2548,16:30น.
    ใครพอจะโซโลได้มั่งครับ อยากได้อ่ะๆๆ
  • แม็ค
    Guest
  • 26 ก.ย.2548,19:31น.
    1
    2
    3---------------------------------------------------------------------------5
    4---------------5-------------------------------5
    5-------------------7----7--2--3------5--7------5--7----------5--7
    6---3--5--7-----------------------------------------------5--7
    สาย3ช่อง5เสร็จไล่รอบแรกตอนจบไม่เหมือนอย่างเดียวครับ
    โซโล่ตอนจบก็ไล่สเกลช่อง12-13-14-15วนไป2สายสลับตามโน๊ตไปเลื่อยๆ
  • มอส
    Guest
  • 8 พ.ย.2548,16:04น.
    ผมหล่อใช่มั้ย
  • มอส
    Guest
  • 8 พ.ย.2548,16:04น.
    ผมหล่อใช่มั้ย
  • สีโห
    Guest
  • 13 พ.ย.2548,01:58น.
    ไมมีหรอก เค้าไม่เล่นกันหรอก คอรค์g บ้านนอกจัง คิดได้ไง มันต้องเล่นAb ถึงจะใช่  
  • แม็ค
    Guest
  • 14 พ.ย.2548,18:31น.
    Soloเลยนะคร้าบแก้มาใหม่เป็นAbละเพราะคุณ สีโห คนเก่งเสนอมา
    1|
    2|-------------------------------------------------------------------------
    3|-------------------------------------------------------------------------
    4|-------------6------------------------6-----------------------6-----6-
    5|----------------8--8--3--4---6/8----6---8---------6--8-----8
    6|--4--6/8---------------------------------------6--8
    ต่อๆอัน2ลงมาอีกนิดดูเอานะ
  • แม็ค
    Guest
  • 14 พ.ย.2548,18:43น.
    มาต่อกันช่วง2
    1|
    2|-------------9--------------9--------------------9----------------9-11-9-8
    3|----------------10--8-10----10-5-6--8/10----10-8-8-10--------------10-8/10
    4|-6--8/10
    5|
    6|
    เป็นอันเสร็จไม่100%ก็เกือบ100%ละคับ
    ***หมายเหตุ ฝากคุณ สีโห ช่วยแกะช่วงไล่สเกลซ์ช่วงสุดท้ายมาให้ด้วยคีAbนะคร้าบทุกคน***
    ปล.ทุกคนต้องขอบคุณ คุณ สีโห มากๆๆๆๆๆครับที่จะกรุณาแกะมาฝาก
  • ตุ้มเป๊ะ
    Guest
  • 18 พ.ย.2548,16:54น.
    พี่แม็คเขียนได้ตรงเป๊ะเลยงับขอบคุงมากกกกกกกกงับ ช่วยแกะท่อนหลังมาหน่อยสิคับจะขอบคุงมากๆ 
  • ฟู(ส.ส)
    Guest
  • 24 พ.ย.2548,23:15น.
    คุณ สีโหคับ ถ้ามาดูก็ช่วยไล่สเกลซ์ช่วงสุดท้ายมาฝากด้วยนะคับ
  • jk
    Guest
  • 5 ธ.ค.2548,08:31น.
    edabvgkHcfsAKJFjhxkfjdsfjsolgkjlskgfkdcjhg;'wgj;wgrghq;eihgjkdsa/;hg;wqaidhf;hg;sdgijhdigjqigh;qohegfjdshgskd;ghsijkghskdgjnmntewisvujxkcgj5oiuofjdsofvu     
    ((ขอคอร์ดกีต้าร์))
  • Sara_HT
    Guest
  • 19 ธ.ค.2548,11:05น.

    intro A/F#M/D/E ( 2 time )

    A F#M
    เกิดมาไม่เคยเจอใครเหมือนเธอ
  • สวาวกใป่เดาผ่กดฝใผ
    Guest
  • 19 ธ.ค.2548,13:10น.
    ไม่อย่ากให้ดูถูก          
  • ปาร์ควงSi-da
    Guest
  • 26 ธ.ค.2548,10:15น.
    คุณแม็คเขียนตรงดี
  • Navy
    Guest
  • 27 ธ.ค.2548,11:43น.
    คุงแม็คเล่นอยู่ห้องอาหารป่าวคับ มีชื่อแกะอยุ่หลายเพลงเลยผมเพิ่งหัดเล่นแกะเพลงไรได้เมล์มาให้ผมที่
    Navy066Navythai.comผมเปงทหารเรือคับ
  • จตุรงค์
    Guest
  • 5 ม.ค.2549,20:42น.
    3/6ร.น.เลขที่42น่ารักมาก 
  • เด็กวัง
    Guest
  • 9 ม.ค.2549,09:50น.
    ผมรู้ท่อนโซโล่หมดแต่ไม่รู้ว่าจะเอาลงอย่างไง  
  • แม็ค
    Guest
  • 9 ม.ค.2549,17:08น.
    คอร์ดเพลงนี้ยังไม่มีคะแนน (อย่าลืม ช่วยกันกดให้คะแนนคอร์ดเพลงที่คุณชื่นชอบ หรือตัดคะแนนคอร์ดที่คุณไม่ชอบ)
    Guitar1
    Intro : Ab/Fm/Db/Eb ( 2 Time )

    Guitar2
    4|---------------6--------------------------6
    5|-----------------8--8/3-3-3/4--6/8---6-------6
    6|-4--4h6/8-----------------------------------6/8--8/4-4

    Ab Fm Db Eb
    เกิดมาไม่เคยเจอ ใครเหมือนเธอ หลับฝันละเมอ ภาพเธอคอยหลอนทุกคืน
    Ab Fm Db Eb
    หลับลงคราใด อยากนอนไม่ยอมตื่น ก็ทุกค่ำคืน เจอเธอที่ปลายฟ้าไกล

    Ab Fm Db Eb
    ก็ได้แต่เพ้อ แต่ฝันลมลม ก็หลงชื่นชม โดยเธอไม่รู้ตัว
    Ab Fm Db Eb
    เจอเธอทีไร จิตใจเต้นรัว ฉันกลัวฉันกลัว กลัวเธอไม่สนใจ

    Fm Cm Db Eb
    * อยากเดินเข้าไป บอกว่ารักเธอ เวลาที่เจอที่เธอส่งยิ้มมา
    Fm Cm Db Eb Ab
    เหมือนดั่งโลกนี้ สดใสขึ้นทันตา ในช่วงเวลาที่ต้องการใคร เข้าใจสักคน

    4|-------------6------------------------6-----------------------6-----6
    5|----------------8-8/3-3/4---6/8----6---8---------6h8-----8---
    6|--4--4h6/8---------------------------------------6h8--------------
    ----------------------------------------------------------------------------------------------------------------
    2|-------------9--------------9--------------------9----------------9-11-9p7
    3|----------------10--8h10----10/5-6--8/10----10-8--8-10--------------10-8-8/10
    4|-6h8/10


    Fm Cm Db Eb
    อยากเดินเข้าไป บอกว่ารักเธอ เวลาที่เจอที่เธอส่งยิ้มมา
    Fm Cm Db Eb
    เหมือนดั่งโลกนี้ สดใสขึ้นทันตา ในช่วงเวลาที่ต้องการใคร

    Ab Fm Db Eb
    หากเธอมีใจ ก็บอกกันสักหน่อย อย่าให้ฉันคอย คอยเธออย่างนี้เลย
    Ab Fm Db Eb
    ให้คอยนานๆ มันซมซานรู้ไหมเอ่ย ยิ่งเธอทำเฉย ฉันเองจะบ้าตาย

    Outtro: Ab/Fm/Db/Eb ( 2 Time )
    h=hammer on
    /=slide
    p=pull off
    โซโล่ช่วงสุดท้ายผมยังไม่ได้นะใครได้ลงเลยนี่มารวมให้แล้วทำให้เหมือนแล้วนะ
  • แม็ค
    Guest
  • 9 ม.ค.2549,17:10น.
    คุณเด็กวัง ไปทำความเข้าใจกับแท็ปแล้วโพสเลยครับ ไม่ก็เขียนเบอร์โทรทิ้งไว้เดี๋ยวผมโทรไปหาแล้วจาช่วยทำให้เข้าใจเองครับ
  • เอ๋อเหรอ
    Guest
  • 15 ม.ค.2549,09:53น.
    คอร์ดเพลงนี้ยังไม่มีคะแนน
    (อย่าลืม ช่วยกันกดให้คะแนนคอร์ดเพลงที่คุณชื่นชอบ หรือตัดคะแนนคอร์ดที่คุณไม่ชอบได้เลย)
    ซมซาน 
    Artist : โลโซ


    Intro : Ab/Fm/Db/Eb ( 2 ครั้ง )

    Ab Fm Db Eb
    เกิดมาไม่เคยเจอ ใครเหมือนเธอ หลับฝันละเมอ ภาพเธอคอยหลอนทุกคืน
    Ab Fm Db Eb
    หลับลงคราใด อยากนอนไม่ยอมตื่น ก็ทุกค่ำคืน เจอเธอที่ปลายฟ้าไกล

    Ab Fm Db Eb
    ก็ได้แต่เพ้อ แต่ฝันลมลม ก็หลงชื่นชม โดยเธอไม่รู้ตัว
    Ab Fm Db Eb
    เจอเธอทีไร จิตใจเต้นรัว ฉันกลัวฉันกลัว กลัวเธอไม่สนใจ

    Fm Cm Db Eb
    * อยากเดินเข้าไป บอกว่ารักเธอ เวลาที่เจอที่เธอส่งยิ้มมา
    Fm Cm Db Eb Ab
    เหมือนดั่งโลกนี้ สดใสขึ้นทันตา ในช่วงเวลาที่ต้องการใคร เข้าใจสักคน

    Instru : Ab/Fm/Db/Eb ( 2 ครั้ง )

    Fm Cm Db Eb
    อยากเดินเข้าไป บอกว่ารักเธอ เวลาที่เจอที่เธอส่งยิ้มมา
    Fm Cm Db Eb
    เหมือนดั่งโลกนี้ สดใสขึ้นทันตา ในช่วงเวลาที่ต้องการใคร

    Ab Fm Db Eb
    หากเธอมีใจ ก็บอกกันสักหน่อย อย่าให้ฉันคอย คอยเธออย่างนี้เลย
    Ab Fm Db Eb
    ให้คอยนานๆ มันซมซานรู้ไหมเอ่ย ยิ่งเธอทำเฉย ฉันเองจะบ้าตาย

    ( ซ้ำ * )

    Ending : Ab/Fm/Db/Eb ( 2 ครั้ง )

    คราบจารคราบ
  • qeqw
    Guest
  • 18 ม.ค.2549,04:00น.
              
  • ขอบอก
    Guest
  • 19 ม.ค.2549,17:23น.
    เพลงนี้เล่น คอร์ด Intro : Ab/Fm/Db/Eb ถูกแล้วครับ
    ไม่เชื่อไปดูโลโซ แสดงสดได้ครับ
    ถ้าไม่งั้นก็ดูจาก บันทึกการแสดงสด คอนเสิร์ตเพื่อเพื่อนก็ได้ครับ
  • DekInwz@
    Guest
  • 20 ม.ค.2549,20:35น.
    ขอคอร์ด กลองหน่อยครับ 
    ((ขอคอร์ดกีต้าร์))
  • อ. ใหญ่ กีต้าร์
    Guest
  • 25 ม.ค.2549,13:00น.
    พ่อเล่นได่แต่ เท็บมั่วไปหน่อย
  • คนอยากทราบ
    Guest
  • 25 ม.ค.2549,17:09น.
    ไม่ใช่เล่นคีร์ A เหรอ   A/F#m/D/E เล่นมานานอ่ะ ไม่รุผิดป่าว
  • ติ้ด เด็กยะลา
    Guest
  • 28 ม.ค.2549,22:30น.
    intro  นี้สำหรับกีตาร์ไฟฟ้า ดีดทีเดียวใช่ เอฟเฟ็ก ลากยาวตลอด

    1---------------------------------------------------
    2---------------------------------------------------
    3---------------------------------------------------
    4---------------------------------------------------
    5-----------------7--7-6/2--2--3--3/6--5----
    6--3--3h4--4/7---------------------------------

    ถ้าอ่านและเล่นถูกน่ะ เหมือนเลย เปะๆเลย แกะจากโลโซโดยเฉพาะ
  • ติ้ด เด็กยะลา
    Guest
  • 28 ม.ค.2549,22:40น.
    intro ถ้าเล่นกีตาร์โปร่ง  ดีดซ้ำกันตลอด อาจจะอ่านยากไปหน่อยสำหรับคนดูไม่ค่อยเป็น

    1----------------------------------------------------------------------------------------------
    2----------------------------------------------------------------------------------------------
    3----------------------------------------------------------------------------------------------
    4----------------------------------------------------------------------------------------------
    5---------------------------7-7-7-7-7-7---6/2--2--3-3-3-3-3-3--4--4/6-5-5-5-5-
    6--3-3-3-3-3---4-4/7---------------------------------------------------------------------

    อาจจะเขียนเลขไม่ครบน่ะคับก็เพิ่มเองก็ได้น่ะคับผม มันมั่วมากเลย พิมจนมั่วเลย
  • ติ้ด เด็กยะลา
    Guest
  • 28 ม.ค.2549,22:46น.
    intro  นี้สำหรับกีตาร์ไฟฟ้า ดีดทีเดียวใช่ เอฟเฟ็ก ลากยาวตลอด

    1----------------------------------------------------------
    2----------------------------------------------------------
    3----------------------------------------------------------
    4----------------------------------------------------------
    5-----------------7--7-6/2--2--3--3h4--4/6--5----
    6--3--3h4--4/7----------------------------------------

    แก้ไขหน่อยน่ะคับ ผิดนิดหน่อย
  • แม็ค
    Guest
  • 5 ก.พ.2549,21:13น.
    ของคุณติ๊ด เด็กยะลา100%เหรอครับผมว่าของผม100%นะมันก็แล้วแต่คนเล่น
    ลองเทียบดูนะครับ
    ของคุณติ๊ด เด็กยะลา
    5-----------------7--7-6/2--2--3--3h4--4/6--5----
    6--3--3h4--4/7----------------------------------------

    นี่ของผม
    4|---------------6--------------------------6
    5|-----------------8--8/3-3-3/4--6/8---6-------6
    6|-4--4h6/8-----------------------------------6/8--8/4-4

    สังเกตนะครับคุณติ๊ด เด็กยะลา Key G ของผมAbซึ่งผมคิดว่าน่าจะAbนะ
    แต่ก็ลองเล่นกันดูนะครับ
  • ยันต์
    Guest
  • 9 ก.พ.2549,15:19น.
    คอร์ดเพลงนี้ยังไม่มีคะแนน
    (อย่าลืม ช่วยกันกดให้คะแนนคอร์ดเพลงที่คุณชื่นชอบ หรือตัดคะแนนคอร์ดที่คุณไม่ชอบได้เลย)
    หวัดดีครับ เอาท่อนกลางซมซานมาฝาก  รับรองตรงเปะ  แต่ว่าเล่นในคีย์  A นะครับ ถ้าใครเล่น Ab ก็เอามาแปลงเอานะครับหรือไม่ก็ลองเลื่อนลงมาอีกเพลสหนึ่งก็ได้แล้วละครับ
    ซมซาน
    4------------------7---------------------------------7----------------------------------7-------------
    5-----------------------9----9/4---5--------7/9------9/7---------7--------7--9------9---------
    6--5------7/9------------------------------------------------------------7/9------------------------
    .............................................................................................................................................
    2---------------------------------10-------------------------------------10---------------------------
    3-------------------------------------------11----------------9--9^11------11--/--6--------------
    4----7---------------9/11-----------------------------------------------------------------------------
    ..............................................................................................................................................
    1-----------------------------------------------------------------------------------------9-------------------
    2----------------------------10---------------------------------------------------10------12--10------10
    3------7----------/11-----------------11/9-------------------9---9/11-------------------------11----

    เล่นตามจังหวะของเพลงเลยนะครับ ฟังไปด้วยเล่นไปด้วยยิ่งจะสนุก พึ่งลงเป็นครั้งแรก ฝากเนื่อฝากตัวด้วยนะครับ ( ต้องการไรเพิ่มเติม ติดต่อทางเมลล์นะครับ)
  • ยันต์
    Guest
  • 9 ก.พ.2549,15:27น.
    คอร์ดเพลงนี้ยังไม่มีคะแนน
    (อย่าลืม ช่วยกันกดให้คะแนนคอร์ดเพลงที่คุณชื่นชอบ หรือตัดคะแนนคอร์ดที่คุณไม่ชอบได้เลย)
    อยากลงท่อนสุดท้ายจังแต่มันยาวมาก   เอาเป็ฯว่าเอาท่อนกลางให้คร่องก่อนนะครับ
    อยากได้เพลง เสคบอกได้ครับ
    1-------------
    2------------
    3-------------------
  • ตุ๋ย
    Guest
  • 6 มี.ค.2549,21:48น.
    ขอท่อนท้ายด้วยครับ อยากได้ครับ
  • top udomporn yuyen
    Guest
  • 17 มี.ค.2549,10:47น.
    คอร์ดเพลงนี้ยังไม่มีคะแนน
    (อย่าลืม ช่วยกันกดให้คะแนนคอร์ดเพลงที่คุณชื่นชอบ หรือตัดคะแนนคอร์ดที่คุณไม่ชอบได้เลย)
    G                            Em             C                                   D
    เกิดมาไม่เคยเจอ ใครเหมือนเธอ หลับฝันละเมอ ภาพเธอคอยหลอนทุกคืน
    G Em C D
    หลับลงคราใด อยากนอนไม่ยอมตื่น ก็ทุกค่ำคืน เจอเธอที่ปลายฟ้าไกล

    G Em C D
    ก็ได้แต่เพ้อ แต่ฝันลมลม ก็หลงชื่นชม โดยเธอไม่รู้ตัว
    G Em C D
    เจอเธอทีไร จิตใจเต้นรัว ฉันกลัวฉันกลัว กลัวเธอไม่สนใจ

    Em Bm C D
    * อยากเดินเข้าไป บอกว่ารักเธอ เวลาที่เจอที่เธอส่งยิ้มมา
    Em Bm C D G
    เหมือนดั่งโลกนี้ สดใสขึ้นทันตา ในช่วงเวลาที่ต้องการใคร เข้าใจสักคน

    Instru : G/Em/C/D (2 ครั้ง )

    Em Bm C D
    อยากเดินเข้าไป บอกว่ารักเธอ เวลาที่เจอที่เธอส่งยิ้มมา
    Em Bm C D
    เหมือนดั่งโลกนี้ สดใสขึ้นทันตา ในช่วงเวลาที่ต้องการใคร

    G Em C D
    หากเธอมีใจ ก็บอกกันสักหน่อย อย่าให้ฉันคอย คอยเธออย่างนี้เลย
    G Em C D
    ให้คอยนานๆ มันซมซานรู้ไหมเอ่ย ยิ่งเธอทำเฉย ฉันเองจะบ้าตาย

    ( ซ้ำ * )

  • แม็ค
    Guest
  • 19 มี.ค.2549,22:41น.
    Tab Bass Key Ab
    1|
    2|
    3|----------6----6----6-6-6/8----8----8---8-8/4---4---4---4-4/6---6---6---6
    4|---4--4----4----4-------------8----8---8----------4---4--4----------6---6---6
  • yukjh
    Guest
  • 20 มี.ค.2549,12:52น.
    คอร์ดเพลงนี้ยังไม่มีคะแนน
    (อย่าลืม ช่วยกันกดให้คะแนนคอร์ดเพลงที่คุณชื่นชอบ หรือตัดคะแนนคอร์ดที่คุณไม่ชอบได้เลย)
    ซมซาน 
    Artist : โลโซ


    Intro : G/Em/C /D (2 ครั้ง )

    G Bm C D
    เกิดมาไม่เคยเจอ ใครเหมือนเธอ หลับฝันละเมอ ภาพเธอคอยหลอนทุกคืน
    G Bm C D
    หลับลงคราใด อยากนอนไม่ยอมตื่น ก็ทุกค่ำคืน เจอเธอที่ปลายฟ้าไกล

    G Em C D
    ก็ได้แต่เพ้อ แต่ฝันลมลม ก็หลงชื่นชม โดยเธอไม่รู้ตัว
    G Em C D
    เจอเธอทีไร จิตใจเต้นรัว ฉันกลัวฉันกลัว กลัวเธอไม่สนใจ

    Em Bm C D
    * อยากเดินเข้าไป บอกว่ารักเธอ เวลาที่เจอที่เธอส่งยิ้มมา
    Bm Em C D G
    เหมือนดั่งโลกนี้ สดใสขึ้นทันตา ในช่วงเวลาที่ต้องการใคร เข้าใจสักคน

    Instru : G/Em/C/D (2 ครั้ง )

    Em Bm C D
    อยากเดินเข้าไป บอกว่ารักเธอ เวลาที่เจอที่เธอส่งยิ้มมา
    Em Bm C D
    เหมือนดั่งโลกนี้ สดใสขึ้นทันตา ในช่วงเวลาที่ต้องการใคร

    G Em C D
    หากเธอมีใจ ก็บอกกันสักหน่อย อย่าให้ฉันคอย คอยเธออย่างนี้เลย
    G Em C D
    ให้คอยนานๆ มันซมซานรู้ไหมเอ่ย ยิ่งเธอทำเฉย ฉันเองจะบ้าตาย

    ( ซ้ำ * )

    Ending : G/Em/C/D ( 2 ครั้ง





  • อาฉง
    Guest
  • 8 เม.ย.2549,13:16น.
    ดุเดือดน่าดู 
  • รุต สามเสน
    Guest
  • 12 เม.ย.2549,14:21น.
    คอร์ดเพลงนี้ยังไม่มีคะแนน
    (อย่าลืม ช่วยกันกดให้คะแนนคอร์ดเพลงที่คุณชื่นชอบ หรือตัดคะแนนคอร์ดที่คุณไม่ชอบได้เลย)
    Soloท่อนกลาง
    4|-------------6------------------------6-----------------------6-----6
    5|----------------8-8/3-3/4---6/8----6---8---------6h8-----8---
    6|--4--4h6/8---------------------------------------6h8--------------
    ----------------------------------------------------------------------------------------------------------------
    2|-------------9--------------9--------------------9----------------9-11-9p7
    3|----------------10--8h10----10/5-6--8/10----10-8--8-10--------------10-8-8/10
    4|-6h8/10


  • มือกีตาร์ Zbelt เด็ก ญ.ส.
    Guest
  • 25 เม.ย.2549,14:15น.
    4----------6--------------------------6-8-8/10^ครึ่งเสียง-8-6-5--------------------------6-8/10----
    5------------6/8-8/3-3-4-4-6/8---------------------------------6-6--------------6-8-6--------------
    6-4-6/8------------------------------------------------------------------6-6-4-6/8----------------------

    1----------------11------------------------------------------------------------------------------------------
    2--------9-11^----11^11-ขึ้นเเล้วลง-9---------------------------------------------------------------
    3-8-10-------------------------------------10P8----8-----8H10-10P8--------------------------8
    4----------------------------------------------------10---10-----------------10-8-6H8-6---8/10---
    5------------------------------------------------------------------------------------------------8--------
    ช่วงนี้ใช่ความเรวนิดนึง
    1--------------8h9p8----------------8h9p8---------------8h9p8--------------8-/16-13p11-13
    2--------8-9-----------9-8-----8-9-----------9-8----8-9-----------9-8----8-9-----------------------
    3----10----------------------10---------------------10--------------------10---------------------------
    4-11-------------------------------------------------------------------------------------------------------

    2-13p11-9-11p9---------------------------------------------9h11p9----9
    3---------------------8-10p8---------------------------8h10------------10
    4-------------------------------8-10p8----------8h10-----------------------
    5------------------------------------------8-8h11------------------------------- จบละ OUTRO เราแกะเองนะ ผิดตรงๆไหนช่วยๆกันแก้
  • มือกีตาร์ Zbelt เด็ก ญ.ส.
    Guest
  • 25 เม.ย.2549,14:29น.
    คอร์ดเพลงนี้ยังไม่มีคะแนน
    (อย่าลืม ช่วยกันกดให้คะแนนคอร์ดเพลงที่คุณชื่นชอบ หรือตัดคะแนนคอร์ดที่คุณไม่ชอบได้เลย)
    อีกนิดนึงตรงท่อนฮุคมีเกาด้วยอะลองดูนะ
    1-8--------8--8-11-8h11p8---------8---8-11
    2---9----9--9-------------------9----9---9------
    3-----10---------------------------10-------------
    ปรามานนี้อะนี้คอดเเรกของท่อนฮุคนะพอเล่นนี้เส็จก็เปลี่ยนไปจับCmจับสามสายล่างแล้วดีดตามนี้หมดเลย แล้วก็คอดDb กดเหมือนBbเเต่เลื่อนมาช่องเปนช่องสี่ แล้วก็คอดEb เลื่อนมาช่องหกนะ ลองเล่นกันดู
  • เด็กบริสุทธิ์
    Guest
  • 30 เม.ย.2549,01:54น.
    4---------------5-------------------------------5---------------------------------/
    5-------------------7--7s2---2--3---5s7------7s5---------5----------------/
    6---3---5s7---------------------------------------------5s7-----7s5---3-----/

  • รุตสามเสน
    Guest
  • 5 พ.ค.2549,11:00น.
    เอาไปเลย
    เพลง ซมซาน
    โดย โลโซ
    Intro : G/Em/C /D (2 ครั้ง )
    4|---------------6--------------------------6
    5|-----------------8--8/3-3-3/4--6/8---6-------6
    6|-4--4h6/8-----------------------------------6/8--8/4-4
    G Bm C D
    เกิดมาไม่เคยเจอ ใครเหมือนเธอ หลับฝันละเมอ ภาพเธอคอยหลอนทุกคืน
    G Bm C D
    หลับลงคราใด อยากนอนไม่ยอมตื่น ก็ทุกค่ำคืน เจอเธอที่ปลายฟ้าไกล

    G Em C D
    ก็ได้แต่เพ้อ แต่ฝันลมลม ก็หลงชื่นชม โดยเธอไม่รู้ตัว
    G Em C D
    เจอเธอทีไร จิตใจเต้นรัว ฉันกลัวฉันกลัว กลัวเธอไม่สนใจ

    Em Bm C D
    * อยากเดินเข้าไป บอกว่ารักเธอ เวลาที่เจอที่เธอส่งยิ้มมา
    Bm Em C D G
    เหมือนดั่งโลกนี้ สดใสขึ้นทันตา ในช่วงเวลาที่ต้องการใคร เข้าใจสักคน

    Instru : G/Em/C/D (2 ครั้ง )
    Solo
    4|-------------6------------------------6-----------------------6-----6
    5|----------------8-8/3-3/4---6/8----6---8---------6h8-----8---
    6|--4--4h6/8---------------------------------------6h8--------------
    ----------------------------------------------------------------------------------------------------------------
    2|-------------9--------------9--------------------9----------------9-11-9p7
    3|----------------10--8h10----10/5-6--8/10----10-8--8-10--------------10-8-8/10
    4|-6h8/10

    Em Bm C D
    อยากเดินเข้าไป บอกว่ารักเธอ เวลาที่เจอที่เธอส่งยิ้มมา
    Em Bm C D
    เหมือนดั่งโลกนี้ สดใสขึ้นทันตา ในช่วงเวลาที่ต้องการใคร

    G Em C D
    หากเธอมีใจ ก็บอกกันสักหน่อย อย่าให้ฉันคอย คอยเธออย่างนี้เลย
    G Em C D
    ให้คอยนานๆ มันซมซานรู้ไหมเอ่ย ยิ่งเธอทำเฉย ฉันเองจะบ้าตาย

    ( ซ้ำ * )

    Ending : G/Em/C/D ( 2 ครั้ง)
    4----------6--------------------------6-8-8/10^ครึ่งเสียง-8-6-5--------------------------6-8/10----
    5------------6/8-8/3-3-4-4-6/8---------------------------------6-6--------------6-8-6--------------
    6-4-6/8------------------------------------------------------------------6-6-4-6/8----------------------

    1----------------11------------------------------------------------------------------------------------------
    2--------9-11^----11^11-ขึ้นเเล้วลง-9---------------------------------------------------------------
    3-8-10-------------------------------------10P8----8-----8H10-10P8--------------------------8
    4----------------------------------------------------10---10-----------------10-8-6H8-6---8/10---
    5------------------------------------------------------------------------------------------------8--------

    1--------------8h9p8----------------8h9p8---------------8h9p8--------------8-/16-13p11-13
    2--------8-9-----------9-8-----8-9-----------9-8----8-9-----------9-8----8-9-----------------------
    3----10----------------------10---------------------10--------------------10---------------------------
    4-11-------------------------------------------------------------------------------------------------------

    2-13p11-9-11p9---------------------------------------------9h11p9----9
    3---------------------8-10p8---------------------------8h10------------10
    4-------------------------------8-10p8----------8h10-----------------------
    5------------------------------------------8-8h11-------------------------------
  • กีต้าร์เหงา
    Guest
  • 28 พ.ค.2549,13:21น.
    ใครเล่นถูกสอนผมที Piponpong_Kulwititco.th
  • Henry
    Guest
  • 9 ส.ค.2549,00:03น.
    คอร์ด Db จับไงอ่ะบอกด้วย
  • มั่วๆ ไปมันก็เป็นเพลง
    Guest
  • 4 ก.ย.2549,04:55น.
    ผมเอาลิ้ง mv มาไห้ดูท่อนsolo ตอนจบอ่ะครับ ผมไม่แน่ใจว่าที่แกะมันถูกป่าว เอาเป็นว่าเอาลิ้งไปและกัน http://www.youtube.com/watch?v=yNJoH9ysD5c
  • นายเบิ่ม
    Guest
  • 4 ก.ย.2549,20:21น.
    ขอบคุณมากมีแต่คนเก่งๆเลย
    ((ขอคอร์ดกีต้าร์))
  • เด็กเพชรบุรี
    Guest
  • 5 ก.ย.2549,04:12น.
    อยากโซโล่เป็นมั่งไครเก่งๆช่วยสอนผมทีครับแอดมาคุยกันได้นะครับออนประจำ-ชื่อคิวนะครับ
    ((ขอคอร์ดกีต้าร์))
  • หกด
    Guest
  • 11 ก.ย.2549,17:49น.
    ง่าว
  • บาส nd 113 ผู้ครั่งใคร้ เสก
    Guest
  • 12 ก.ย.2549,04:22น.
    อยากรู้ครับ h กับ p ในเเทบมันคืออะไรอะครับ มันคาใจอะครับไม่งั้นเล่นไม่เป็นเพลงแน่
  • สหายสุรา
    Guest
  • 14 ก.ย.2549,14:53น.
     ขอบคุณมากนะที่ส่งคอดเนื้อเพลงมาให้ สำหรับคนที่เริ่มเล่นกีต้า 
  • [bUd
    Guest
  • 25 ก.ย.2549,19:44น.
    h คือ hammer on หรือตบสาย เช่น 7h8 ก็ดีด7แล้วใช้อีกนิ้วตบลงบนเฟร็ต8 ให้เสียงสูงขึ้น
    p คือ pull off หรือเกี่ยวสาย เช่น 8p7 ก็ให้กดทั้ง2เฟร็ตแล้วดีด แล้วนิ้วที่กดเฟร็ต8เกี่ยวออก ให้เสียงต่ำลง
  • non
    Guest
  • 5 ต.ค.2549,01:21น.
    tabดูกันยังไงครับ..แล้วเล่นจังหวะยังไง..ได้เสียงยังไง 
    ((ขอคอร์ดกีต้าร์))
  • pin14260
    Guest
  • 5 ต.ค.2549,07:14น.
    ใครก็ได้โทรไปถามพี่เสกหน่อย 
  • 6 ต.ค.2549,21:21น.
    ขอแมลคุนยันต์หน่อยครับ
  • B-แบงค์
    Guest
  • 17 ต.ค.2549,05:03น.
    อยากได้มานานและแต่โซโลช่วงท้ายแกะเป็ฯคีย์ A ให้ทีซิ(วานๆ)   
  • arm อาร์ม
    Guest
  • 24 ต.ค.2549,16:58น.
               ผมชอบเพลง   ซมซานมากครับอยากไห้อยู่ไปนานๆครับ 
    ((ขอคอร์ดกีต้าร์))
  • โปเต้ sunglasses
    Guest
  • 31 ต.ค.2549,12:50น.
    ดีครับ   
  • ซมซาน
    Guest
  • 20 พ.ย.2549,11:56น.
    คอร์ดเพลงนี้ยังไม่มีคะแนน (อย่าลืม ช่วยกันกดให้คะแนนคอร์ดเพลงที่คุณชื่นชอบ หรือตัดคะแนนคอร์ดที่คุณไม่ชอบ)
    Ending : G/Em/C/D ( 2 ครั้ง)
    4----------6--------------------------6-8-8/10^ครึ่งเสียง-8-6-5--------------------------6-8/10----
    5------------6/8-8/3-3-4-4-6/8---------------------------------6-6--------------6-8-6--------------
    6-4-6/8------------------------------------------------------------------6-6-4-6/8----------------------

    1----------------11------------------------------------------------------------------------------------------
    2--------9-11^----11^11-ขึ้นเเล้วลง-9---------------------------------------------------------------
    3-8-10-------------------------------------10P8----8-----8H10-10P8--------------------------8
    4----------------------------------------------------10---10-----------------10-8-6H8-6---8/10---
    5------------------------------------------------------------------------------------------------8--------

    1--------------8h9p8----------------8h9p8---------------8h9p8--------------8-/16-13p11-13
    2--------8-9-----------9-8-----8-9-----------9-8----8-9-----------9-8----8-9-----------------------
    3----10----------------------10---------------------10--------------------10---------------------------
    4-11-------------------------------------------------------------------------------------------------------

    2-13p11-9-11p9---------------------------------------------9h11p9----9
    3---------------------8-10p8---------------------------8h10------------10
    4-------------------------------8-10p8----------8h10-----------------------
    5------------------------------------------8-8h11-------------------------------
  • k
    Guest
  • 21 พ.ย.2549,17:22น.
    gr 
  • vin
    Guest
  • 21 พ.ย.2549,17:24น.
    0846403393 
  • Soho Solo Loso
    Guest
  • 22 พ.ย.2549,08:15น.
    ช่วงนี้ใช่ความเรวนิดนึง
    1--------------8h9p8----------------8h11p8---------------8h9p8--------------8-11/16-13p11-13
    2--------8-9-----------9-8-----8-9-----------9-8----8-9-----------9-8----8-9-----------------------
    3----10----------------------10---------------------10--------------------10---------------------------
    4-11-------------------------------------------------------------------------------------------------------

    2-13p11-9-11p9---------------------------------------------9h11p9----9
    3---------------------8-10p8---------------------------8h10------------10
    4-------------------------------8-10p8----------8h10-----------------------
    5------------------------------------------8-8h11------------------------------- จบละ OUTRO

    ผมแก้ให้คับ ฟังให้ดี ๆ นะคับ ตอน ดีดสวีพอะ ตอนสาย 1 มันจะมีสลับกัน มันจะมีไป 8-9 และ 8-11 สลับกัน ใช้นิ้วก้อย หรือนิ้วนางเกี่ยวเอาอะคับ ตอนสาย 1 บาร์ 11 งงมะเนี่ย เปนอันว่าเล่นตามที่อันนิแหละ โซโล เพลงแลกที่ผมภูมิใจสุด ๆ เลยนะเนี่ย เพลงนิอะ 555 แกะเปนเดือน ตอนหัดเล่นใหม่ ๆ
  • kew
    Guest
  • 27 ธ.ค.2549,17:09น.
    ฟังได้ที่เว็บไหนอะครับ
  • นัท
    Guest
  • 28 ม.ค.2550,22:55น.
    เพลงนี้ผมไห้เปรี้ยวครับ
    ชอบจิงๆ
  • เต้ยนาคา
    Guest
  • 4 ก.พ.2550,09:26น.
    อยากได้เพลงซมซานแบบ แท้ๆจิงงับ
  • มิยาบิ
    Guest
  • 16 ก.พ.2550,11:14น.
    1-----------8h9p8---------------8h11p8--------------8h9p8---------------8-11slide16------
    2------8h9-----------9p8-----8h9-----------9p8----8h9-----------9h8--8p9--------------------
    3----10----------------------10---------------------10--------------------10---------------------------
    4-11-------------------------------------------------------------------------------------------------------

    1--15p13-----13-
    2------------16------16p13
    3--------------------------------15--13--15p13--
    4-------------------------------------------------------15--13--15p--13
    5-------------------------------------------------------------------------------15-13-15p13
    6--------------------------------------------------------------------------------------------------16-13


    3------------------------------13h15p13------13
    4--------------------13h15-----------------15
    5----------13h15
    6----16--
  • lnwNoname
    Guest
  • 21 ก.พ.2550,19:08น.
    คอร์ดเพลงนี้ยังไม่มีคะแนน
    (อย่าลืม ช่วยกันกดให้คะแนนคอร์ดเพลงที่คุณชื่นชอบ หรือตัดคะแนนคอร์ดที่คุณไม่ชอบได้เลย)
    ซมซาน 
    Artist : โลโซ


    Intro : G/Em/C /D (2 ครั้ง )

    G Em C D
    เกิดมาไม่เคยเจอ ใครเหมือนเธอ หลับฝันละเมอ ภาพเธอคอยหลอนทุกคืน
    G Em C D
    หลับลงคราใด อยากนอนไม่ยอมตื่น ก็ทุกค่ำคืน เจอเธอที่ปลายฟ้าไกล

    G Em C D
    ก็ได้แต่เพ้อ แต่ฝันลมลม ก็หลงชื่นชม โดยเธอไม่รู้ตัว
    G Em C D
    เจอเธอทีไร จิตใจเต้นรัว ฉันกลัวฉันกลัว กลัวเธอไม่สนใจ

    Em Bm C D
    * อยากเดินเข้าไป บอกว่ารักเธอ เวลาที่เจอที่เธอส่งยิ้มมา
    Em Bm C D G
    เหมือนดั่งโลกนี้ สดใสขึ้นทันตา ในช่วงเวลาที่ต้องการใคร เข้าใจสักคน

    Instru : G/Em/C/D (2 ครั้ง )

    Em Bm C D
    อยากเดินเข้าไป บอกว่ารักเธอ เวลาที่เจอที่เธอส่งยิ้มมา
    Em Bm C D
    เหมือนดั่งโลกนี้ สดใสขึ้นทันตา ในช่วงเวลาที่ต้องการใคร

    G Em C D
    หากเธอมีใจ ก็บอกกันสักหน่อย อย่าให้ฉันคอย คอยเธออย่างนี้เลย
    G Em C D
    ให้คอยนานๆ มันซมซานรู้ไหมเอ่ย ยิ่งเธอทำเฉย ฉันเองจะบ้าตาย

    ( ซ้ำ * )

    Ending : G/Em/C/D ( 2 ครั้ง )

  • นิรนาม13
    Guest
  • 4 มี.ค.2550,16:39น.
    ตกลงโซโล่ของความคิดเห็นไหนแน่คับที่ถูกต้องจริงๆ ใครก็ได้ช่วยแนะนำหน่อยนะคับ
  • มือ SOLO วง บีกิน
    Guest
  • 15 มี.ค.2550,13:55น.
    4----------6--------------------------6-8-8/10^ครึ่งเสียง-8-6-5--------------------------6-8/10----
    5------------6/8-8/3-3-4-4-6/8---------------------------------6-6--------------6-8-6--------------
    6-4-6/8------------------------------------------------------------------6-6-4-6/8----------------------

    1----------------11------------------------------------------------------------------------------------------
    2--------9-11^----11^11-ขึ้นเเล้วลง-9---------------------------------------------------------------
    3-8-10-------------------------------------10P8----8-----8H10-10P8--------------------------8
    4----------------------------------------------------10---10-----------------10-8-6H8-6---8/10---
    5------------------------------------------------------------------------------------------------8--------

    1--------------8h9p8----------------8h9p8---------------8h9p8--------------8-/16-13p11-13
    2--------8-9-----------9-8-----8-9-----------9-8----8-9-----------9-8----8-9-----------------------
    3----10----------------------10---------------------10--------------------10---------------------------
    4-11-------------------------------------------------------------------------------------------------------

    2-13p11-9-11p9---------------------------------------------9h11p9----9
    3---------------------8-10p8---------------------------8h10------------10
    4-------------------------------8-10p8----------8h10-----------------------
    5------------------------------------------8-8h11-------------------------------
    ผิดยังไงไมว่ากานนะครับ เด็กหนองคาย
  • ไรว๊ะ!!!
    Guest
  • 17 มี.ค.2550,16:28น.
    คอร์ดเพลงนี้ยังไม่มีคะแนน
    (อย่าลืม ช่วยกันกดให้คะแนนคอร์ดเพลงที่คุณชื่นชอบ หรือตัดคะแนนคอร์ดที่คุณไม่ชอบได้เลย)

    4----------6--------------------------6-8-8/10^ครึ่งเสียง-8-6-5--------------------------6-8/10----
    5------------6/8-8/3-3-4-4-6/8---------------------------------6-6--------------6-8-6--------------
    6-4-6/8------------------------------------------------------------------6-6-4-6/8----------------------

    1----------------11------------------------------------------------------------------------------------------
    2--------9-11^----11^11-ขึ้นเเล้วลง-9---------------------------------------------------------------
    3-8-10-------------------------------------10P8----8-----8H10-10P8--------------------------8
    4----------------------------------------------------10---10-----------------10-8-6H8-6---8/10---
    5------------------------------------------------------------------------------------------------8--------

    1--------------8h9p8----------------8h9p8---------------8h9p8--------------8-/16-13p11-13
    2--------8-9-----------9-8-----8-9-----------9-8----8-9-----------9-8----8-9-----------------------
    3----10----------------------10---------------------10--------------------10---------------------------
    4-11-------------------------------------------------------------------------------------------------------

    2-13p11-9-11p9---------------------------------------------9h11p9----9
    3---------------------8-10p8---------------------------8h10------------10
    4-------------------------------8-10p8----------8h10-----------------------
    5------------------------------------------8-8h11
  • YeS
    Guest
  • 24 มี.ค.2550,19:31น.
    จังหวะดีดยังไงเหรอคับ
  • สา
    Guest
  • 12 เม.ย.2550,04:06น.
    ถามไรหน่อยนะค่ะ เเล้วเวลาดีดอะ ยังไงอะตอนเเรกอะ เเบบว่า ขึ้นๆลงลงอะ กี่ครั้งหรอค่ะ
  • สี่ ZORO
    Guest
  • 20 เม.ย.2550,14:35น.
    คอร์ดเพลงนี้ยังไม่มีคะแนน (อย่าลืม ช่วยกันกดให้คะแนนคอร์ดเพลงที่คุณชื่นชอบ หรือตัดคะแนนคอร์ดที่คุณไม่ชอบ)
    ผมชื่อสี่ครับตอนนี้ตั้งวงเล่นอยู่ที่ อ. แม่สาย จ.เชียงราย     ชื่อวง  ZORO ครับ  และเน้น
    เล่นแต่เพลงของพี่เสก โลโซครับ ร้องเพลงของพี่เสกได้ทุกเพลง แถมเสียงคล้าย
    มาก อยากรู้ว่าเหมือนแค่ไหนมาฟังกันที่ อ.แม่สายนะครับ เหนือสุดยอดในสยาม ณ
    ลานดนตรี หน้าที่ว่าการ อ.แม่สาย ทุกๆวันเสาร์ เวลาประมาณ 19.00น.เป็นต้นไป มี
    การแสดงต่างๆของเด็กๆ และก็มี วงดนตรีอีกหลายวงไปเล่นนะครับ ยังไงก็แวะ มาเที่ยว
    กันนะครับ ชอบพี่เสกโลโซมากนะครับ

    เพลง ซมซาน
    โดย โลโซ
    Intro : G/Em/C /D (2 ครั้ง )
    4|---------------6--------------------------6
    5|-----------------8--8/3-3-3/4--6/8---6-------6
    6|-4--4h6/8-----------------------------------6/8--8/4-4
    G Bm C D
    เกิดมาไม่เคยเจอ ใครเหมือนเธอ หลับฝันละเมอ ภาพเธอคอยหลอนทุกคืน
    G Bm C D
    หลับลงคราใด อยากนอนไม่ยอมตื่น ก็ทุกค่ำคืน เจอเธอที่ปลายฟ้าไกล

    G Em C D
    ก็ได้แต่เพ้อ แต่ฝันลมลม ก็หลงชื่นชม โดยเธอไม่รู้ตัว
    G Em C D
    เจอเธอทีไร จิตใจเต้นรัว ฉันกลัวฉันกลัว กลัวเธอไม่สนใจ

    Em Bm C D
    * อยากเดินเข้าไป บอกว่ารักเธอ เวลาที่เจอที่เธอส่งยิ้มมา
    Bm Em C D G
    เหมือนดั่งโลกนี้ สดใสขึ้นทันตา ในช่วงเวลาที่ต้องการใคร เข้าใจสักคน

    Instru : G/Em/C/D (2 ครั้ง )
    Solo
    4|-------------6------------------------6-----------------------6-----6
    5|----------------8-8/3-3/4---6/8----6---8---------6h8-----8---
    6|--4--4h6/8---------------------------------------6h8--------------
    ----------------------------------------------------------------------------------------------------------------
    2|-------------9--------------9--------------------9----------------9-11-9p7
    3|----------------10--8h10----10/5-6--8/10----10-8--8-10--------------10-8-8/10
    4|-6h8/10

    Em Bm C D
    อยากเดินเข้าไป บอกว่ารักเธอ เวลาที่เจอที่เธอส่งยิ้มมา
    Em Bm C D
    เหมือนดั่งโลกนี้ สดใสขึ้นทันตา ในช่วงเวลาที่ต้องการใคร

    G Em C D
    หากเธอมีใจ ก็บอกกันสักหน่อย อย่าให้ฉันคอย คอยเธออย่างนี้เลย
    G Em C D
    ให้คอยนานๆ มันซมซานรู้ไหมเอ่ย ยิ่งเธอทำเฉย ฉันเองจะบ้าตาย

    ( ซ้ำ * )

    Ending : G/Em/C/D ( 2 ครั้ง)
    4----------6--------------------------6-8-8/10^ครึ่งเสียง-8-6-5--------------------------6-8/10----
    5------------6/8-8/3-3-4-4-6/8---------------------------------6-6--------------6-8-6--------------
    6-4-6/8------------------------------------------------------------------6-6-4-6/8----------------------

    1----------------11------------------------------------------------------------------------------------------
    2--------9-11^----11^11-ขึ้นเเล้วลง-9---------------------------------------------------------------
    3-8-10-------------------------------------10P8----8-----8H10-10P8--------------------------8
    4----------------------------------------------------10---10-----------------10-8-6H8-6---8/10---
    5------------------------------------------------------------------------------------------------8--------

    1--------------8h9p8----------------8h9p8---------------8h9p8--------------8-/16-13p11-13
    2--------8-9-----------9-8-----8-9-----------9-8----8-9-----------9-8----8-9-----------------------
    3----10----------------------10---------------------10--------------------10---------------------------
    4-11-------------------------------------------------------------------------------------------------------

    2-13p11-9-11p9---------------------------------------------9h11p9----9
    3---------------------8-10p8---------------------------8h10------------10
    4-------------------------------8-10p8----------8h10-----------------------
    5------------------------------------------8-8h11-------------------------------
    ขอบคุณทุกท่านที่ อ่านครับ หวังว่าคงได้เจอกันนะครับ
    ((ขอคอร์ดกีต้าร์))
  • เด็กดอย
    Guest
  • 12 พ.ค.2550,22:16น.
    แสดเอ๊ย กุงง
  • คนไม่เอาถ่าน
    Guest
  • 12 มิ.ย.2550,21:25น.
    ขอบคุณครับ
  • ไอซ์ หนองเสือ
    Guest
  • 17 มิ.ย.2550,02:09น.
    เพลงครูผมเลยน้าเนี่ย ตึ่ง ตึ่ง ตื้ง เตื้ง ตืง ตืง ดี่ หดึ่ง
  • เด็กวัดบางปอนด์หอวัง
    Guest
  • 22 มิ.ย.2550,21:53น.
    เหง่าๆอะใครเล่นMSNเเอ๊ดมาที่ดิดิ♥คนชอบเพลงเดียวกัน♥ซมซานอะ
    ว่างเเอ๊ดมานะเมลpongpun2495hotmail.com
    คุยสนุกมากนะขอบอกจากT_T ((ขอคอร์ดกีต้าร์))
  • เด็กชาย เซมากุเตะ เมามากุต่อยบ้านเลขที่ หลุมที่1
    Guest
  • 22 มิ.ย.2550,22:05น.
    ใครคิดว่าตัวเองเล่นกีต้าเก่งสอนผมที่ดิคับๆๆๆๆ
    เเอ๊ดมาที่เมลนี้นะคับอยากเล่นกีต้าเป็นอะๆๆๆๆๆ
    เเต่เล่นไม่เป็นสอนทีที่เทลนี้นะคับๆๆๆๆๆๆๆๆๆ
    pongpun2495hotmail.com
    สอนผมทีนะคับเเอ๊ดมาเอ๋ออออออออออออออออออ ((ขอคอร์ดกีต้าร์))
  • แป้ง ubon
    Guest
  • 20 ก.ค.2550,12:44น.
    ขอ Tab Bass ทีค่ะ อยากเล่น เพิ่งหัดเล่น ขอละเอียดๆ เลนน้า
    เกียบ ลืม ขอ คี G น้า
    ขอบคุณ ค่ะ ((ขอคอร์ดกีต้าร์))
  • ออออ
    Guest
  • 19 ส.ค.2550,21:43น.
    ใครที่โพสก่อนกุขอให้บ้านจน
  • integrel
    Guest
  • 21 ส.ค.2550,19:56น.
    ขอขอบคุณครับที่แนะนำอะไรดีๆให้ผม โดยเฉพาะเพลงนี้ถ้าผมเล่นโซโลได้ก็ขอขอบคุณอีกครั้งครับ
  • กำจัดเกรียณมั่วคอด
    Guest
  • 23 ส.ค.2550,17:42น.
    พวกเกรียณ คอด       G     Em      C       D
    มันคอดปัญญาอ่อนอ่ะ คอดอย่างงี้เสียงไม่เข้าอ่ะ และไม่มีคนล่นด้วย พวก เกรียณมักชอบเรียนคอด G Em C D

    พวกเทพเค้าจะเล่น คอด
    Ab Fm Db Eb
    กันนะเกรียณจำไว้
  • .24651
    Guest
  • 24 ส.ค.2550,18:41น.
    หรอออออออออออ!!!!!!! พวกเทพก็เกรียนโดยเฉพาะเมิง ^^^^^^^^^^^^^
  • 7 ก.ย.2550,18:03น.
    แล้วมันอันไหนกานแน่เนี่ย ฉานก้อเล่น A/F=m/D/E อยู่นานละ
    โซโลก็เหมือนกันแหละ แค่ถัดคอมาให้ตรง
    อยากรู้ว่าจริงๆแล้วพี่เสกเล่นคีย์ไหนกานแน่
  • น้องเขียง
    Guest
  • 8 ก.ย.2550,11:17น.
    คอร์ดเพลงนี้ยังไม่มีคะแนน
    (อย่าลืม ช่วยกันกดให้คะแนนคอร์ดเพลงที่คุณชื่นชอบ หรือตัดคะแนนคอร์ดที่คุณไม่ชอบได้เลย)
    มีแค่4คอร์ดง่ายๆเอง D/Bm/Em/A
  • Tallslaker
    Guest
  • 10 ก.ย.2550,09:50น.
    คอร์ดเพลงนี้ยังไม่มีคะแนน
    (อย่าลืม ช่วยกันกดให้คะแนนคอร์ดเพลงที่คุณชื่นชอบ หรือตัดคะแนนคอร์ดที่คุณไม่ชอบได้เลย)
    ซมซาน

    Intro : A/F*m/D/E ( 2 ครั้ง )

    A F*m D E
    เกิดมาไม่เคยเจอ ใครเหมือนเธอ หลับฝันละเมอ ภาพเธอคอยหลอนทุกคืน
    A F*m D E
    หลับลงคราใด อยากนอนไม่ยอมตื่น ก็ทุกค่ำคืน เจอเธอที่ปลายฟ้าไกล

    A F*m D E
    ก็ได้แต่เพ้อ แต่ฝันลมลม ก็หลงชื่นชม โดยเธอไม่รู้ตัว
    A F*m D E
    เจอเธอทีไร จิตใจเต้นรัว ฉันกลัวฉันกลัว กลัวเธอไม่สนใจ

    F*m Cm D E
    * อยากเดินเข้าไป บอกว่ารักเธอ เวลาที่เจอที่เธอส่งยิ้มมา
    F*m Cm D E A
    เหมือนดั่งโลกนี้ สดใสขึ้นทันตา ในช่วงเวลาที่ต้องการใคร เข้าใจสักคน

    Instru : A /F*m/D/E ( 2 ครั้ง )

    F*m Cm D E
    อยากเดินเข้าไป บอกว่ารักเธอ เวลาที่เจอที่เธอส่งยิ้มมา
    F*m Cm D E
    เหมือนดั่งโลกนี้ สดใสขึ้นทันตา ในช่วงเวลาที่ต้องการใคร

    A F *m D E
    หากเธอมีใจ ก็บอกกันสักหน่อย อย่าให้ฉันคอย คอยเธออย่างนี้เลย
    A F*m D E
    ให้คอยนานๆ มันซมซานรู้ไหมเอ่ย ยิ่งเธอทำเฉย ฉันเองจะบ้าตาย

    ( ซ้ำ * )

    Ending : A/F*m/D/E ( 2 ครั้ง )
  • ผู้ลึกลับ
    Guest
  • 16 ก.ย.2550,21:09น.
    แงแม่ถิ้งเพราะเครื่งเสียงพัง ฟังเพลงมากเกินแงแงแงๆๆๆๆๆๆๆๆๆๆๆๆๆๆๆๆๆๆๆๆๆๆๆๆๆๆๆๆช่วยด้วย S.O.Sแงๆๆๆๆๆๆๆๆๆๆๆๆๆๆๆๆๆๆๆๆๆๆๆๆๆๆๆๆๆ พี่LOSOคร้าบ
  • sonic
    Guest
  • 25 ก.ย.2550,10:23น.
    เป็นเพลงที่สนุกมาก yellow sonic culb ((ขอคอร์ดกีต้าร์))
  • จาตุรันต์
    Guest
  • 25 ก.ย.2550,10:37น.
    คอร์ดเพลงนี้ยังไม่มีคะแนน
    (อย่าลืม ช่วยกันกดให้คะแนนคอร์ดเพลงที่คุณชื่นชอบ หรือตัดคะแนนคอร์ดที่คุณไม่ชอบได้เลย)


    Guitar1
    Intro : Ab/Fm/Db/Eb ( 2 Time )

    Guitar2
    4|---------------6--------------------------6
    5|-----------------8--8/3-3-3/4--6/8---6-------6
    6|-4--4h6/8-----------------------------------6/8--8/4-4

    Ab Fm Db Eb
    เกิดมาไม่เคยเจอ ใครเหมือนเธอ หลับฝันละเมอ ภาพเธอคอยหลอนทุกคืน
    Ab Fm Db Eb
    หลับลงคราใด อยากนอนไม่ยอมตื่น ก็ทุกค่ำคืน เจอเธอที่ปลายฟ้าไกล

    Ab Fm Db Eb
    ก็ได้แต่เพ้อ แต่ฝันลมลม ก็หลงชื่นชม โดยเธอไม่รู้ตัว
    Ab Fm Db Eb
    เจอเธอทีไร จิตใจเต้นรัว ฉันกลัวฉันกลัว กลัวเธอไม่สนใจ

    Fm Cm Db Eb
    * อยากเดินเข้าไป บอกว่ารักเธอ เวลาที่เจอที่เธอส่งยิ้มมา
    Fm Cm Db Eb Ab
    เหมือนดั่งโลกนี้ สดใสขึ้นทันตา ในช่วงเวลาที่ต้องการใคร เข้าใจสักคน

    4|-------------6------------------------6-----------------------6-----6
    5|----------------8-8/3-3/4---6/8----6---8---------6h8-----8---
    6|--4--4h6/8---------------------------------------6h8--------------
    ----------------------------------------------------------------------------------------------------------------
    2|-------------9--------------9--------------------9----------------9-11-9p7
    3|----------------10--8h10----10/5-6--8/10----10-8--8-10--------------10-8-8/10
    4|-6h8/10


    Fm Cm Db Eb
    อยากเดินเข้าไป บอกว่ารักเธอ เวลาที่เจอที่เธอส่งยิ้มมา
    Fm Cm Db Eb
    เหมือนดั่งโลกนี้ สดใสขึ้นทันตา ในช่วงเวลาที่ต้องการใคร

    Ab Fm Db Eb
    หากเธอมีใจ ก็บอกกันสักหน่อย อย่าให้ฉันคอย คอยเธออย่างนี้เลย
    Ab Fm Db Eb
    ให้คอยนานๆ มันซมซานรู้ไหมเอ่ย ยิ่งเธอทำเฉย ฉันเองจะบ้าตาย

    Outtro: Ab/Fm/Db/Eb ( 2 Time )
    h=hammer on
    /=slide
    p=pull off
    โซโล่ช่วงสุดท้ายผมยังไม่ได้นะใครได้ลงเลยนี่มารวมให้แล้วทำให้เหมือนแล้วนะ
    ((ขอคอร์ดกีต้าร์))
  • ซมซาน
    Guest
  • 30 ก.ย.2550,19:43น.
    4----------6--------------------------6-8-8/10^ครึ่งเสียง-8-6-5--------------------------6-8/10----
    5------------6/8-8/3-3-4-4-6/8---------------------------------6-6--------------6-8-6--------------
    6-4-6/8------------------------------------------------------------------6-6-4-6/8----------------------

    1----------------11------------------------------------------------------------------------------------------
    2--------9-11^----11^11-ขึ้นเเล้วลง-9---------------------------------------------------------------
    3-8-10-------------------------------------10P8----8-----8H10-10P8--------------------------8
    4----------------------------------------------------10---10-----------------10-8-6H8-6---8/10---
    5------------------------------------------------------------------------------------------------8--------

    1--------------8h9p8----------------8h9p8---------------8h9p8--------------8-/16-13p11-13
    2--------8-9-----------9-8-----8-9-----------9-8----8-9-----------9-8----8-9-----------------------
    3----10----------------------10---------------------10--------------------10---------------------------
    4-11-------------------------------------------------------------------------------------------------------

    2-13p11-9-11p9---------------------------------------------9h11p9----9
    3---------------------8-10p8---------------------------8h10------------10
    4-------------------------------8-10p8----------8h10-----------------------
    5------------------------------------------8-8h11
    แบบน้แหละ
  • นิรนาม
    Guest
  • 2 ต.ค.2550,16:29น.
    คอร์ดเพลงนี้ยังไม่มีคะแนน
    (อย่าลืม ช่วยกันกดให้คะแนนคอร์ดเพลงที่คุณชื่นชอบ หรือตัดคะแนนคอร์ดที่คุณไม่ชอบได้เลย)
    ซมซาน 
    Artist : โลโซ


    Intro : G/Em/C /D (2 ครั้ง )

    G Bm C D
    เกิดมาไม่เคยเจอ ใครเหมือนเธอ หลับฝันละเมอ ภาพเธอคอยหลอนทุกคืน
    G Bm C D
    หลับลงคราใด อยากนอนไม่ยอมตื่น ก็ทุกค่ำคืน เจอเธอที่ปลายฟ้าไกล

    G Em C D
    ก็ได้แต่เพ้อ แต่ฝันลมลม ก็หลงชื่นชม โดยเธอไม่รู้ตัว
    G Em C D
    เจอเธอทีไร จิตใจเต้นรัว ฉันกลัวฉันกลัว กลัวเธอไม่สนใจ

    Em Bm C D
    * อยากเดินเข้าไป บอกว่ารักเธอ เวลาที่เจอที่เธอส่งยิ้มมา
    Bm Em C D G
    เหมือนดั่งโลกนี้ สดใสขึ้นทันตา ในช่วงเวลาที่ต้องการใคร เข้าใจสักคน

    Instru : G/Em/C/D (2 ครั้ง )

    Em Bm C D
    อยากเดินเข้าไป บอกว่ารักเธอ เวลาที่เจอที่เธอส่งยิ้มมา
    Em Bm C D
    เหมือนดั่งโลกนี้ สดใสขึ้นทันตา ในช่วงเวลาที่ต้องการใคร

    G Em C D
    หากเธอมีใจ ก็บอกกันสักหน่อย อย่าให้ฉันคอย คอยเธออย่างนี้เลย
    G Em C D
    ให้คอยนานๆ มันซมซานรู้ไหมเอ่ย ยิ่งเธอทำเฉย ฉันเองจะบ้าตาย

    ( ซ้ำ * )

    Ending : G/Em/C/D ( 2 ครั้ง )


  • น้องอร์ม
    Guest
  • 4 ต.ค.2550,18:16น.
    แล้วเพลงนี้เล่นคีย์ A หรือว่า Ab ครับผม
  • ต้น
    Guest
  • 7 ต.ค.2550,20:04น.
    เกาตอนท่อนกลาง มานเล่น ไง คับใครใจดี เขียน แทปที คับ (หรือไม่ก็แอ๊ดมาเมลผมที นะ )ขอบคุนคับ
    ((ขอคอร์ดกีต้าร์))
  • มือใหม่หัดแกะ
    Guest
  • 9 ต.ค.2550,21:36น.
    INTRO

    4|-------------6----3--3--------------3---6--------------
    5|-----------------------------3----4----------7-----------
    6|----4---4-------------------------------------------

    ผมลองแกะเองวันที่ 9/10/2007
    ใหม่ล่าสุดได้ท่อนนี้แล้วจะแกะง่ายขึ้นนะคัพ
    แต่ผมขอให้ลองดูพยาม เข้านะคัพ
  • ภูเก็ต
    Guest
  • 17 ต.ค.2550,22:02น.
    บอกวิธีจับคอร์ด   Ab/Fm/Db/Eb   ให้หน่อยครับ  ผมเล่นเป็นแต่Ab  แล้วก็ Fmอ่ะ  ที่เหลือยงจับไม่เป็นเลยอ่าครับ  เขียนเป็นแท็ปให้หน่อย
    ((ขอคอร์ดกีต้าร์))
  • Phuket
    Guest
  • 17 ต.ค.2550,22:05น.
    บอกวิธีจับคอร์ด   Ab/Fm/Db/Eb   ให้หน่อยครับ  ผมเล่นเป็นแต่Ab  แล้วก็ Fmอ่ะ  ที่เหลือยงจับไม่เป็นเลยอ่าครับ  เขียนเป็นแท็ปให้หน่อย
  • หล่อ
    Guest
  • 24 ต.ค.2550,19:46น.
    แล้วจะดีดยังไงครับ ขึ้น หรือลง ยงไง อะ งงมากช่วยบอกทีจะมีคนตอบปะเนี่ย
  • -..-
    Guest
  • 25 ต.ค.2550,15:15น.
    คอร์ด Ab จับไงอ่ะคับ เพิ่งจาหัดเล่นอ่ะคับ
  • .....
    Guest
  • 13 พ.ย.2550,20:20น.
    คอร์ดเพลงนี้ยังไม่มีคะแนน
    (อย่าลืม ช่วยกันกดให้คะแนนคอร์ดเพลงที่คุณชื่นชอบ หรือตัดคะแนนคอร์ดที่คุณไม่ชอบได้เลย)


    1/-----------3333----------33----------------
    2/---------33----33--------33--------------
    3/--------33----333-------33----------------
    4/---------333333--------33----------------
    5/-----------------33-------33----------------
    6/-----------------33-------33----------------
    1/-----------------33-------33-------------
    2/-----------------33-------33--------------
    3/-------------------33---33----------------
    4/---------------------3333----------------
  • สามารถ 999
    Guest
  • 20 พ.ย.2550,09:45น.
    ใครที่คิดว่าแน่มาเจอกันได้ ที่สุพรรณบุรี ร.ร.สหวิทย์ ม.2/2 สามารจ่าพันธุ์
    แน่จริงมาเจอ
  • สามารถ 999
    Guest
  • 20 พ.ย.2550,09:50น.
    คนจขริงไม่กลัว แต่กลัวคนไม่จริง แน่จริงมาเลย
  • สามารถ 999
    Guest
  • 20 พ.ย.2550,09:53น.
    ที่ส่งไปเมื่อกี้ผมล่อเล่น ขอโทษนะครับเเต่อยางหงนึ่งที่ผมพูดจิงก็คือผมเป็นตุ้ต
  • วท.โคราช
    Guest
  • 8 ธ.ค.2550,21:07น.
    คิดแต่ว่าเจ๋ง
  • touy
    Guest
  • 12 ธ.ค.2550,16:03น.
    ชอบโลโซมากครับ
  • touy
    Guest
  • 12 ธ.ค.2550,16:14น.
    อยากเล่นเก่งเหมือนพี่เสกจังเลยครับ
  • เต๋า บางไซ
    Guest
  • 19 ธ.ค.2550,10:50น.
    SOLO อะครับ พี่ไม่รู้ว่าอันไหนถูกไม่เซง
    ว่าจะเอาเล่นอ่อยสาวสักหน่อย
  • เต๋า บางไซ
    Guest
  • 19 ธ.ค.2550,10:52น.
  • วุฒิ
    Guest
  • 26 ธ.ค.2550,00:22น.
    อยากซาบว่าหมายเลขที่ใช้โซโลหมายความว่ายังไงครับอธิบายให้ที่ ขอบคุณ ((ขอคอร์ดกีต้าร์))
  • บอส
    Guest
  • 9 ม.ค.2551,12:39น.
    ชอบพี่เสกมากครับ
  • -
    Guest
  • 11 ม.ค.2551,19:44น.
    คอดไหนจิงว้าเนี่ย แมร่งเอ้ยย
  • โดย SEX LOSO
    Guest
  • 17 ก.พ.2551,16:25น.
    ไม่ค่อยเหมือนเลย....................
    เหมือนนิดหน่อย.....................ขอขอบคุณที่เป็นแนวทาง
    แต่ไม่ค่อยเหมือน
  • เป็นต่อ
    Guest
  • 17 ก.พ.2551,21:52น.
    อยากอ่านโน๊ตโซโล่เป็นอ่ะคับทำไงคัยสอนผมได้addมาที่เมลล์ผมหน่อยนะคับ play_lokihotmail.com ขอบคุณล่วงหน้าคับ
  • เทพ
    Guest
  • 9 มี.ค.2551,11:46น.
    ผมอ่านไม่ออก อะครับ สอน หน่อย พอรู้เรื่องที่ว่า เส้นไหน เหด ไหนแค่นั้นละครับ -*-
  • Mr. Shinoda
    Guest
  • 16 มี.ค.2551,22:07น.
    เกิดมาไม่เคยเจอ ใครเหมือนเธอ หลับฝันละเมอ ภาพเธอคอยหลอนทุกคืนหลับลงคราใด อยากนอนไม่ยอมตื่น ก็ทุกค่ำคืน เจอเธอที่ปลายฟ้าไกลก็ได้แต่เพ้อ แต่ฝันลมลม ก็หลงชื่นชม โดยเธอไม่รู้ตัวเจอเธอทีไร จิตใจเต้นรัว ฉันกลัวฉันกลัว กลัวเธอไม่สนใจ* อยากเดินเข้าไป บอกว่ารักเธอ เวลาที่เจอที่เธอส่งยิ้มมา เหมือนดั่งโลกนี้ สดใสขึ้นทันตา ในช่วงเวลาที่ต้องการใคร เข้าใจสักคนอยากเดินเข้าไป บอกว่ารักเธอ เวลาที่เจอที่เธอส่งยิ้มมาเหมือนดั่งโลกนี้ สดใสขึ้นทันตา ในช่วงเวลาที่ต้องการใครหากเธอมีใจ ก็บอกกันสักหน่อย อย่าให้ฉันคอย คอยเธออย่างนี้เลยให้คอยนานๆ มันซมซานรู้ไหมเอ่ย ยิ่งเธอทำเฉย ฉันเองจะบ้าตาย( ซ้ำ * )
  • เเน็ก
    Guest
  • 18 มี.ค.2551,14:38น.
    โครตเพราะชิมหายเลย ((ขอคอร์ดกีต้าร์))
  • มือกีต้าร์มือใหม่ แต่ฝีมือไวพอๆกับมือโปร
    Guest
  • 25 มี.ค.2551,13:47น.
    ใครก็ได้สอนอ่านtabที แงงงงง กูละงงกับพวกมรึง จะเอาคีย์ไหนกันแน่ว้า
    กูละงงไปไหมแล้ว สรุปพี่เสกเขาเล่นคียร์หนายว่ะ ถ้าไม่มีคนโพสน์ตูจาจับ
    พี่เสกไปเสกเป็นข้าวสารเสกไปเลย แล้วถามเขาว่า เล่นคีย์อะไร
    ฮุ้ย เซ็ง
  • 22 ก.ย.2557,01:35น.
    คอร์ดเพลงนี้ยังไม่มีคะแนน
    (อย่าลืม ช่วยกันกดให้คะแนนคอร์ดเพลงที่คุณชื่นชอบ หรือตัดคะแนนคอร์ดที่คุณไม่ชอบได้เลย)
    Intro : G/Em/C /D (2 ครั้ง )
    
     G                            Em             C                                   D
    เกิดมาไม่เคยเจอ ใครเหมือนเธอ หลับฝันละเมอ ภาพเธอคอยหลอนทุกคืน
    
     G                                Em              C                            D
    หลับลงคราใด อยากนอนไม่ยอมตื่น ก็ทุกค่ำคืน เจอเธอที่ปลายฟ้าไกล
    
     G                 Em         C                            D
    ก็ได้แต่เพ้อ แต่ฝันลมลม ก็หลงชื่นชม โดยเธอไม่รู้ตัว
    
    G                  Em           C                             D
    เจอเธอทีไร จิตใจเต้นรัว ฉันกลัวฉันกลัว กลัวเธอไม่สนใจ
    
       Em                            Bm    C                       D
    * อยากเดินเข้าไป บอกว่ารักเธอ เวลาที่เจอที่เธอส่งยิ้มมา
    
      Em                               Bm     C                            D   G
       เหมือนดั่งโลกนี้ สดใสขึ้นทันตา ในช่วงเวลาที่ต้องการใคร เข้าใจสักคน
    
    Instru : G/Em/C/D  (2 ครั้ง )
    
    Em                           Bm     C                     D
    อยากเดินเข้าไป บอกว่ารักเธอ เวลาที่เจอที่เธอส่งยิ้มมา
    
    Em                           Bm       C                D 
    เหมือนดั่งโลกนี้ สดใสขึ้นทันตา ในช่วงเวลาที่ต้องการใคร
    
     G                              Em              C                    D
    หากเธอมีใจ ก็บอกกันสักหน่อย อย่าให้ฉันคอย คอยเธออย่างนี้เลย
    
     G                               Em             C                   D
    ให้คอยนานๆ มันซมซานรู้ไหมเอ่ย ยิ่งเธอทำเฉย ฉันเองจะบ้าตาย
    
    ( ซ้ำ * )
    
    Ending : G/Em/C/D ( 2 ครั้ง
1

ขอเชิญร่วมแสดงความคิดเห็นครับ

คลิกที่รูป เพื่อแทรกรูปลงในข้อความ
  • Member :
    username
    password
  • Not a member :
    name
    email
Loading