Loading

ฟังเพลง ราชาฝันสลาย

คาราบาว

อัพโหลดคลิปเพลงนี้ที่คุณ ร้อง/เล่น ด้วยตัวคุณเอง ได้แล้ววันนี้
ระหว่างการทดสอบระบบหากพบข้อผิดพลาด กรุณาแจ้งที่นี่


เพลง : ราชันย์ฝันสลาย

Intro........D/E/A/F#m/Bm/E/A/E

A F#m
* ที่เดียวไอ้น้อง.... คืนนี้พี่จองโต๊ะมุมด้านใน
A F#m
ขอมุมสลัวสลัว รู้ตัวว่าต้องร้องไห้
Bm E
ไม่อยากให้ใครเห็นน้ำตา
A F#m
อยากเมาให้พัก รถไม่ได้ขับจับแท็กซี่มา
A F#m
หัวใจพี่โดนหักหลัง อกพังเสียไม่เป็นท่า
A
พี่เลยจะมาเมาให้กระจาย.....

A F#m
** คืนนี้พี่เป็นราชา ราชันย์อกหัก
E A
แห่งอาณาจักรชื่อรักสลาย
F#m Bm
ไม่มีมเหสี ไม่มีหญิงใด
E
มีแต่เพื่อนใจชื่อว่าสุรา......

A F#m
*** รีบชงไอ้น้อง.... คืนนี้ไม่กองไม่มีเลิกรา
A F#m
คบคนมันมีแต่ท้อ คบแอลกอฮอล์มันกว่า
E A
คำสั่งราชา ยกมาอีกแบน

solo......D/E/A/F#m/Bm/E/A/E

(ซ้ำ * / ** / *** )

F#m
(เฮ่ย...) ต้มยำกุ้ง ยิ้มเยาะ หัวเราะเย้ย

เนื้อแดดเดียว เอื้อนเอ่ย สมน้ำหน้า

ปลาแป๊ะซะ ถากถาง ด้วยหางตา

อัศวิน สิ้นน้ำยา หมดท่าแมน

อยากตะโกนดัง ๆ กลางร้านเหล้า

ว่าโคตรโศก โคตรเศร้า ร้าวเหลือแสน

เฮ้ย! ..ไอ้น้อง หนุ่มบาว ขอเหล้าแบน

ดื่มให้โลก ที่ขาดแคลน คนจริงใจ........

solo.....D/E/A/F#m/Bm/E/A


(ซ้ำ ** / * ** )

F#m A
อีกแบน.........
ส่งเพลงนี้ให้เพื่อน
วันที่โพสต์ : 7 มี.ค.2551,11:57น. 117.47.149.152
จำนวนผู้ชม : 71649 คน / แสดงความคิดเห็น : 15 ครั้ง
โพสต์โดย


จาก: เสือ
เข้าร่วม: 7 ปีก่อน
เพลง: 1
โพสต์: 4
เพลงแนะนำ
เพลงฮิต
ผู้สนับสนุน
เลือกแสดงเฉพาะ :

  • ดำ
    Guest
  • 7 มี.ค.2551,13:21น. 118.172.208.243
    อีกกลมได้ปะ อิอิอิ ตลกคับ
  • 7 มี.ค.2551,15:22น. 222.123.48.204



    จะต้องใช้ปลอกสวมที่เรียกว่าตัวสไล้ด์

    Intro
    1--------------------------------------------------------------------------------------------------------------
    2--------<22---19---17----12>14---10---7---10>12-->--17--17--14---12>14--14>17-----
    3--------------------------------------------------------------------------------------------------------------
    4--------------------------------------------------------------------------------------------------------------
    5--------------------------------------------------------------------------------------------------------------
    6--------------------------------------------------------------------------------------------------------------

    ---------------------------------------------------------------------------------------------------------------
    ---17--22--17>19--17--10>12--10<7---10>12--->17--17<14<---7>10---------------------
    ---------------------------------------------------------------------------------------------------------------
    ---------------------------------------------------------------------------------------------------------------
    ---------------------------------------------------------------------------------------------------------------
    ---------------------------------------------------------------------------------------------------------------

    solo..1..
    1--------------------------------------------------------------------------------------------------------------
    2---17--14-<--12>14--10---7--10>12---17--17---14<12>14--14>17--17--22--17>19--
    3--------------------------------------------------------------------------------------------------------------
    4--------------------------------------------------------------------------------------------------------------
    5--------------------------------------------------------------------------------------------------------------
    6--------------------------------------------------------------------------------------------------------------

    -------------------------------------------------------------------------------------------
    ----17--10>12--10<7---10>12--->17--17<14<---7>10---------------------
    -------------------------------------------------------------------------------------------
    -------------------------------------------------------------------------------------------
    -------------------------------------------------------------------------------------------
    -------------------------------------------------------------------------------------------

    solo...2...
    1--------------------------------------------------------------------------------------------------------------
    2--------<22---19---17----12>14---10---7---10>12-->--17--17--14---12>14--14>17-----
    3--------------------------------------------------------------------------------------------------------------
    4--------------------------------------------------------------------------------------------------------------
    5--------------------------------------------------------------------------------------------------------------
    6--------------------------------------------------------------------------------------------------------------

    ---------------------------------------------------------------------------------------------------------------
    ---17--22--17>19--17--10>12--10<7---10>12--->17--17<14<---7>10---------------------
    ---------------------------------------------------------------------------------------------------------------
    ---------------------------------------------------------------------------------------------------------------
    ---------------------------------------------------------------------------------------------------------------
    ---------------------------------------------------------------------------------------------------------------

    > คือ สไล้ด์เข้า

    < คือ สไล้ด์ออก
1

ขอเชิญร่วมแสดงความคิดเห็นครับ

คลิกที่รูป เพื่อแทรกรูปลงในข้อความ
  • Member :
    username
    password
  • Not a member :
    name
    email