Loading

Tab วังวน

แคลช (Clash)

อัพโหลดคลิปเพลงนี้ที่คุณ ร้อง/เล่น ด้วยตัวคุณเอง ได้แล้ววันนี้
ระหว่างการทดสอบระบบหากพบข้อผิดพลาด กรุณาแจ้งที่นี่
Print

วังวน
Astist : Clash
Album : Crashing

Intro : C#m/F#/Bmaj7/G#m7/C#m/Eb/G#m7//

C#m F# Bmaj7
... บ่อยที่ในหัวใจ เหมือนได้ยินเสียงเธอ
C#m F# Bmaj7
และบ่อยที่นอนละเมอ ยังเผลอเรียกเธออย่างเดิม ซ้ำๆ
C#m F# Bmaj7 G#m7
* แต่ก็รู้ว่าเธอนั้นไปไกลสุดฟ้า และก็รู้ว่าเธอ ไม่มีวันคืนย้อนมา
C#m Eb G#m7
อยากจะทำตัว ทำหัวใจให้แข็งแรง เหมือนดังเดิมอีกครั้ง
C#m F# Bmaj7 G#m7
จะต้องเป็นอย่างนี้ นานเท่าไหร่ โอกาสที่มันจะหาย มองไม่เห็นทาง
C#m Eb G#m7
ติดอยู่ในวังวนที่ไร้ทางออก...เพราะว่ารักคำเดียว...

Solo : G#m7/C#m/F#/G#m7/C#m/F#/Bmaj7

(*)
http://www.musicatm.com/thai/คอร์ดเพลง-วังวน-แคลช-(Clash)-7247.html
ดาวน์โหลด Full Song
กด *424243078896584
กด *424243078896584
ดาวน์โหลด Truetone
กด *424218078896584
กด *424218078896584
กด *424218078896584
ดาวน์โหลด Poly
กด *424214078896584
กด *424214078896584
กด *424214078896584
ดาวน์โหลด Mono
กด *424211078896584
กด *424211078896584
กด *424211078896584
* อัตราค่าบริการดาวน์โหลด Fullsong, Truetone, Poly, Mono : 35 บาท/เพลง
ส่งเพลงนี้ให้เพื่อน
วันที่โพสต์ : 27 พ.ย.2549,00:51น. 203.154.51.4
จำนวนผู้ชม : 368506 คน / แสดงความคิดเห็น : 233 ครั้ง
โพสต์โดย


จาก: เจตน์
เข้าร่วม: 8 ปีก่อน
เพลง: 0
โพสต์: 2
เพลงแนะนำ
เพลงฮิต
เลือกแสดงเฉพาะ :

  • 27 พ.ย.2549,11:17น.
    ไวจัง ต้องฟังด่วน
  • pd
    Guest
  • 27 พ.ย.2549,11:35น.
    มาแล้วเหรอคับ
  • seiryu
    Guest
  • 27 พ.ย.2549,12:31น.
    ชอบๆ
  • Bigger
    Guest
  • 27 พ.ย.2549,18:38น.
    เพราะมากเพลงนี้
  • ไอ
    Guest
  • 27 พ.ย.2549,18:56น.
    ง่า
    ทำไงอะค่ะ กดไม่เป็นอะค่ะ โหลดเพลงยังไงอะ ไม่ๆเปนอะบอกๆหน่อยนะค่ะ เป็นขั้นๆนะค่ะ
  • วันใหม่
    Guest
  • 27 พ.ย.2549,19:27น.
    ใส่ระหัส 3 ตัว แล้ว Enter รอ จนกว่าจาขึ้น download
  • HALLOWEEN
    Guest
  • 27 พ.ย.2549,20:34น.
    ชอบเพลงนี้อะ
  • กาย
    Guest
  • 27 พ.ย.2549,20:50น.
    เฮ้ๆๆๆๆๆๆๆๆๆๆๆๆๆๆๆๆๆๆๆๆๆๆๆๆๆๆๆๆๆๆๆๆๆ
  • 28 พ.ย.2549,11:45น.
    วังวน
    Astist : Clash
    Album : Crashing

    Intro : Dm7/Gsus4/Cmaj7/A7/Dm7/E7/Am//

    Dm7 Gsus4 Cmaj7
    ... บ่อยที่ในหัวใจ เหมือนได้ยินเสียงเธอ
    Dm7 Gsus4 Cmaj7
    และบ่อยที่นอนละเมอ ยังเผลอเรียกเธออย่างเดิม ซ้ำๆ
    Dm7 Gsus4 Cmaj7 Am7
    * แต่ก็รู้ว่าเธอนั้นไปไกลสุดฟ้า และก็รู้ว่าเธอ ไม่มีวันคืนย้อนมา
    Dm7 E7 Am A
    อยากจะทำตัว ทำหัวใจให้แข็งแรง เหมือนดังเดิมอีกครั้ง
    Dm7 Gsus4 Cmaj7 Am7
    จะต้องเป็นอย่างนี้ นานเท่าไหร่ โอกาสที่มันจะหาย มองไม่เห็นทาง
    Dm7 E7 (Am)
    ติดอยู่ในวังวนที่ไร้ทางออก...เพราะว่ารักคำเดียว...

    Solo : Am/Am7M/Am7/F7M/Dm7/Gsus4/Cmaj7
    (*)

    instro Guiter1
    Dm7 Gsus4 Cmag7
    1/------------1-----------------------3-----------------------0
    2/-------1-------1---1---------1-------1----1----------0-------0---0
    3/----2----2-------2---------0---0-------0----------0----0-------0
    4/-0----------------------------------------------------
    5/--------------------------------------------------3--------------
    6/-------------------------3-------------------------------------
    A7 Dm7 E7
    1/------------0------------------1-----------------------0--------
    2/------2-------2---2-------1-----1---1-----------3-------3---0
    3/----0----0------0-------2---2-----2----------1-----1------1---
    4/----------------------0-----------------------------------------
    5/-0---------------------------------------------------------------
    6/--------------------------------------------0--------------------
    Am
    1/------------------0----------0
    2/--------1---------------1---1
    3/-----4----4---------4------2
    4/-----------------------------2
    5/--0----------0--------------0
    6/-----------------------------0

    Solo guitar1
    Am Am7M Am7 F7M
    1/-----------5--------------------5--------------------5---------------------5--------
    2/------5------5--------------5------5-------------5------5-------------5------5-----
    3/----5---5------5--------5----5------5--------5----5------5--------5---5------5---
    4/--7----------------7-6-------------------6-5-------------------5-3-----------------
    5/--------------------------------------------------------------------------------------
    6/---------------------------------------------------------------------------------------
    Dm7 Gsus4 Cmag7 Cmag7
    1/--------------------1----------------------3---------------------0-------------------0-------
    2/--------------1-------1----1---------1-------1----1--------0------0---0-------0------0---0
    3/-----------2----2-------2---------0----0-------0--------0----0------0------0----0------0
    4/--3--2--0-----------------------------------------------------------------------------------
    5/--------------------------------------------------------3-------------------3---------------
    6/--------------------------------3-----------------------------------------------------------

    intro Guitar2
    Dm7 Gsus4 Cmaj7 A7
    2/--5--6---8---6--5--6--5-------------------------------------
    3/-----------------------------5----7---7--5--4--5-4-------7--6
    4/--------------------------------7----------------------5-5-----
    Dm7 E7 Am
    2/--------5--8--6-----------------------------------------------------------
    3/--6--7-----------5--5----5--4-----------------------------------4-5-4---
    4/---------------------------------------------------------3--5--7-----------7
    5/----------------------------------------------3--5--7---------------------
    6/------------------------------------3--5--7-------------------------------
    เล่นเร็ว
    4/--9->10---5->7--0->2------------
    5/---------------------------0->2---0

    เริ่มร้องguitar2

    Dm7 Gsus4 Cmag7
    1/--5-------5--------8----5>7----------7------------------7---------------------7>8>7----
    2/-------6-------6------------------8-------------------8------8----------------8-----------8-5
    3/-----5--5---5------------------7---7-----------7>9---9------9-------7>9---9------------
    4/------------------------------5---------------10----------------------10----------------------
    5/--5------------------------------------------------------------------------------------------
    6/---------------------------------------------------------------------------------------------

    Dm7 Gsus4 Cmag7
    1/-------------5------7-----------7------------------7-----------------------7>8>7-----------
    2/---6----6------------------8------------------8------8----------------8-------------8>10>8---5
    3/------5---5-------------7----7----------7>9---9------9-------7>9---9-------------------
    4/---------------------5---------------10----------------------10----------------------------
    5/--5------------------------------------------------------------------------------------------
    6/---------------------------------------------------------------------------------------------


    Dm7 Gsus4 Cmag7 Am7
    1/------------5-----------------------10--8--7-----------------------7------8----8---
    2/-6------6------6------8------8-----------------8>10>8-----8--------------------
    3/-----5----5-------5--------7---7----------------------------9---9---9-------------
    4/------------------------5--------------------------------------------------------------
    5/-5-------------------------------------------------------------------------------------
    6/----------------------------------------------------------------------------------------

    Dm7 E7 Am A
    1/--------------------12--10-10--8--8--7--5
    2/------------9--9----------------------------

    Dm7 Gsus4 Cmaj7 Am7
    1/---------------8---10----10--8--7-----------------------7---8
    2/-----10--10-------------------------8>10>8--------8--------
    3/---------------------------------------------------7>9---9------


    Dm7 E7
    1/----------------8--7-----7--8->10
    2/----10--10------------------------

    solo guitar2
    Am Am7M Am7
    3/------------------------------------9--10--9>10>9--7----5--7-9-10--9>10>9--7
    4/--7-6-7->9--7--9->10--9-10---------------------------------------------------

    F7M Dm7 Gsus4 Cmaj7
    2/------------------------------------------------------------------------------------12
    3/--7--5--4--7--5--5----2--4--5--2-----2--4--5--7---7--9--10--7--9---9----9--9

    คอร์ด
    Am Am7M Am7 F7M Gsus4
    1/-5 5 5 5 3
    2/-5 5 5 5 1
    3/-5 5 5 5 0
    4/-7 6 5 3 0
    5/- 2
    6/- 3
    ตั้งสาย Ebนะ ยังแกะไม่หมดมึนแล้ว
  • POO
    Guest
  • 28 พ.ย.2549,12:29น.
    ขอบคุณครับ ทุกคนใจดีมากๆๆๆๆๆๆๆๆๆๆๆๆๆ
    ((ขอคอร์ดกีต้าร์))
  • พัชชีส์
    Guest
  • 28 พ.ย.2549,23:29น.
    ชอบวงแคลชจังเลย
  • mmmmm_master
    Guest
  • 29 พ.ย.2549,21:06น.
    Intro

    2)--4h5--5/7/5--4h5--4h5p4--------------------------------------------------------------
    3)--------------------------------------4--------4/6---4/6/4--3h4--3h4p3--------4/5/4
    4)------------------------------------------6-----------------------------------------4-4---------

    2)---------------------5/7/5--------------------
    3)--2/4/6--6/8---------------4-4--3/4/3--
    4)-------------------------------------------------

    3)-----------------------------------3h4p3----------------------------------------------------
    4)------------------------3h5h7-------------6--8h9p8--5h7p5--4h5p4--2h3p2---
    5)-------------3h5h7-------------------------------------------------------------------------3/5
    6)--3h5h7--------------------------------------------------------------------------------------
  • mmmmm_master
    Guest
  • 29 พ.ย.2549,21:10น.
    Intro

    2)--4h5--5/7/5--4h5--4h5p4--------------------------------------------------------------
    3)--------------------------------------4--------4/6---4/6/4--3h4--3h4p3--------4/5/4
    4)------------------------------------------6-----------------------------------------4-4---------

    2)---------------------5/7/5--------------------
    3)--2/4/6--6/8---------------4-4--3/4/3--
    4)-------------------------------------------------

    3)-----------------------------------3h4p3----------------------------------------------------
    4)------------------------3h5h7-------------6--8h9p8--5h7p5--4h5p4--2h3p2---
    5)-------------3h5h7-------------------------------------------------------------------------0h2
    6)--3h5h7------------------------------------------------------------------------------------------3
  • เท่ง
    Guest
  • 30 พ.ย.2549,21:58น.
    เว็บโหลดเพลง โหลดหนังมากมายเข้าไปโหลดกันดิ แปลกกันจริงของฟรีมีมากมาย 
    www.step-club.net คลับนี้มีแต่การแบ่งปัน
  • กาย
    Guest
  • 2 ธ.ค.2549,13:09น.
    ขอ โซ โล่ ด้วย ค๊า บ บบ บ บSolo  อ่า  
    ((ขอคอร์ดกีต้าร์))
  • 555
    Guest
  • 2 ธ.ค.2549,19:32น.
    ไปถอดหัวพ่อเมิงให้ได้ก่อนนะค่อยมาบอกกู กูรำคาน
  • mmmmm_master
    Guest
  • 2 ธ.ค.2549,20:41น.
    Solo

    3)----------------7---------9----------8/9--8h9p8--6--2/4/6--6/8--9--8h9p8--
    4)--5/7--6--7-----6--7------6--7--------------------------------------------------------

    3)--4/6/4--3--4/6/4--4--------------------------------------------------------
    4)------------------------------4/6--6/8--8/9--6--4/6--6/8--8/9--9/11--

    3)------------------------------------------------15---------
    4)--9/11--13--14--11--11/13--11/13------13--13

  • ไม่บอก
    Guest
  • 5 ธ.ค.2549,16:14น.
    เค้าแกะเพลงนี้ได้งัยครับเก่งมากๆๆ

    ทำไปได้ครับ
  • ณัฐคุง
    Guest
  • 7 ธ.ค.2549,21:32น.
    พี่ๆน้องครับ ผมมีเรื่องแนะหน่อย ผมว่า เพลงนี้ติดแฟลตนะ พี่ๆน้องๆ ก็ช่วยกันแกะหน่อย ไอตรง โซโล่
    ก็แก้หน่อยนะครับผม บอกได้เท่านี้เพราะเพิ่งฟังเหมือนกัน

    เพลงนี้เพราะมากๆครับ ฟังแล้วซึม
  • 5541
    Guest
  • 10 ธ.ค.2549,20:47น.
    มีใคร แกะ แบบ เต็มๆๆๆๆๆๆ ได้ บ้าง ลงที เถอะ 
    เพาะ ๆๆๆๆๆๆๆๆๆๆๆๆๆๆๆๆๆๆๆๆๆๆๆๆ
  • คิ
    Guest
  • 10 ธ.ค.2549,23:29น.
    ขอหน่อยเหอะคับ ขอ แทบ เพลงนี้ทั้งเพลงเลย 



    คุณ น้อย ที่ลง ไว้อะคับ ช้วยต่อหน่อยเหอะคับ



    ขอขอบคุณอย่างยิ่งเลยคับ
    ((ขอคอร์ดกีต้าร์))
  • sleyer
    Guest
  • 12 ธ.ค.2549,12:35น.
    xxxxxxxxขอเนื้อเพลง ท้าชน หน่อยคับ ยังไม่เหนมีกระทู้เลย ใครมีตั้งหน่อยนะคับ มันส์มากxxxxx
    ((ขอคอร์ดกีต้าร์))
  • nook
    Guest
  • 13 ธ.ค.2549,19:40น.
    บ่อย....ที่ในหัวใจ เหมือนได้ยินเสียงเธอ และบ่อยที่นอนละเมอ ยังเผลอเรียกเธอ อย่างเดิม ซ้ำๆ แต่ก็รู้ว่าเธอนั้นไปไกลสุดฟ้า....และก็รู้ว่าเธอไม่มีวันคืนย้อนมา T-T
  • - - -
    Guest
  • 13 ธ.ค.2549,20:53น.
    ยังงงงงอยู่
  • unknow
    Guest
  • 13 ธ.ค.2549,20:54น.
    ช่วยอธิบายการจับคอร์ดให้เข้าใจหน่อยจิ

ขอเชิญร่วมแสดงความคิดเห็นครับ

คลิกที่รูป เพื่อแทรกรูปลงในข้อความ
  • Member :
    username
    password
  • Not a member :
    name
    email