MusicATM : แทปเพลง วังวน แคลช (Clash) แทป แทปกีต้าร์ วังวน Tab guitar กีต้าร์ แท็บกีต้าร์

คอร์ดเพลง เนื้อเพลง ฟังเพลง

Tab วังวน

แคลช (Clash)

Print

วังวน
Astist : Clash
Album : Crashing

Intro : C#m/F#/Bmaj7/G#m7/C#m/Eb/G#m7//

C#m F# Bmaj7
... บ่อยที่ในหัวใจ เหมือนได้ยินเสียงเธอ
C#m F# Bmaj7
และบ่อยที่นอนละเมอ ยังเผลอเรียกเธออย่างเดิม ซ้ำๆ
C#m F# Bmaj7 G#m7
* แต่ก็รู้ว่าเธอนั้นไปไกลสุดฟ้า และก็รู้ว่าเธอ ไม่มีวันคืนย้อนมา
C#m Eb G#m7
อยากจะทำตัว ทำหัวใจให้แข็งแรง เหมือนดังเดิมอีกครั้ง
C#m F# Bmaj7 G#m7
จะต้องเป็นอย่างนี้ นานเท่าไหร่ โอกาสที่มันจะหาย มองไม่เห็นทาง
C#m Eb G#m7
ติดอยู่ในวังวนที่ไร้ทางออก...เพราะว่ารักคำเดียว...

Solo : G#m7/C#m/F#/G#m7/C#m/F#/Bmaj7

(*)
http://www.musicatm.com/thai/คอร์ดเพลง-วังวน-7247.html
ดาวน์โหลด Full Song
กด *424243078896584
กด *424243078896584
ดาวน์โหลด Truetone
กด *424218078896584
กด *424218078896584
กด *424218078896584
ดาวน์โหลด Poly
กด *424214078896584
กด *424214078896584
กด *424214078896584
ดาวน์โหลด Mono
กด *424211078896584
กด *424211078896584
กด *424211078896584
* อัตราค่าบริการดาวน์โหลด Fullsong, Truetone, Poly, Mono : 35 บาท/เพลง
ส่งเพลงนี้ให้เพื่อน
วันที่โพสต์ : 27 พ.ย.2549,00:51น. 203.154.51.4
จำนวนผู้ชม : 369093 คน / แสดงความคิดเห็น : 233 ครั้ง
โพสต์โดย


จาก: เจตน์
เข้าร่วม: 8 ปีก่อน
เพลง: 0
โพสต์: 2
เพลงฮิต
เพลงใหม่
เพลงทั้งหมด
เพลงแนะนำ
Fanpage
ข่าวสารจากเว็บครับ
เลือกแสดงเฉพาะ :

  • 28 พ.ย.2549,11:45น.
    ยังไม่มีคะแนนสำหรับคอร์ดที่ดีที่สุด
    ช่วยกันกดให้คะแนนคอร์ดเพลงที่คุณชื่นชอบเพื่อนำขึ้นมาจัดแสดงไว้บนสุดนี้

    วังวน
    Astist : Clash
    Album : Crashing

    Intro : Dm7/Gsus4/Cmaj7/A7/Dm7/E7/Am//

    Dm7 Gsus4 Cmaj7
    ... บ่อยที่ในหัวใจ เหมือนได้ยินเสียงเธอ
    Dm7 Gsus4 Cmaj7
    และบ่อยที่นอนละเมอ ยังเผลอเรียกเธออย่างเดิม ซ้ำๆ
    Dm7 Gsus4 Cmaj7 Am7
    * แต่ก็รู้ว่าเธอนั้นไปไกลสุดฟ้า และก็รู้ว่าเธอ ไม่มีวันคืนย้อนมา
    Dm7 E7 Am A
    อยากจะทำตัว ทำหัวใจให้แข็งแรง เหมือนดังเดิมอีกครั้ง
    Dm7 Gsus4 Cmaj7 Am7
    จะต้องเป็นอย่างนี้ นานเท่าไหร่ โอกาสที่มันจะหาย มองไม่เห็นทาง
    Dm7 E7 (Am)
    ติดอยู่ในวังวนที่ไร้ทางออก...เพราะว่ารักคำเดียว...

    Solo : Am/Am7M/Am7/F7M/Dm7/Gsus4/Cmaj7
    (*)

    instro Guiter1
    Dm7 Gsus4 Cmag7
    1/------------1-----------------------3-----------------------0
    2/-------1-------1---1---------1-------1----1----------0-------0---0
    3/----2----2-------2---------0---0-------0----------0----0-------0
    4/-0----------------------------------------------------
    5/--------------------------------------------------3--------------
    6/-------------------------3-------------------------------------
    A7 Dm7 E7
    1/------------0------------------1-----------------------0--------
    2/------2-------2---2-------1-----1---1-----------3-------3---0
    3/----0----0------0-------2---2-----2----------1-----1------1---
    4/----------------------0-----------------------------------------
    5/-0---------------------------------------------------------------
    6/--------------------------------------------0--------------------
    Am
    1/------------------0----------0
    2/--------1---------------1---1
    3/-----4----4---------4------2
    4/-----------------------------2
    5/--0----------0--------------0
    6/-----------------------------0

    Solo guitar1
    Am Am7M Am7 F7M
    1/-----------5--------------------5--------------------5---------------------5--------
    2/------5------5--------------5------5-------------5------5-------------5------5-----
    3/----5---5------5--------5----5------5--------5----5------5--------5---5------5---
    4/--7----------------7-6-------------------6-5-------------------5-3-----------------
    5/--------------------------------------------------------------------------------------
    6/---------------------------------------------------------------------------------------
    Dm7 Gsus4 Cmag7 Cmag7
    1/--------------------1----------------------3---------------------0-------------------0-------
    2/--------------1-------1----1---------1-------1----1--------0------0---0-------0------0---0
    3/-----------2----2-------2---------0----0-------0--------0----0------0------0----0------0
    4/--3--2--0-----------------------------------------------------------------------------------
    5/--------------------------------------------------------3-------------------3---------------
    6/--------------------------------3-----------------------------------------------------------

    intro Guitar2
    Dm7 Gsus4 Cmaj7 A7
    2/--5--6---8---6--5--6--5-------------------------------------
    3/-----------------------------5----7---7--5--4--5-4-------7--6
    4/--------------------------------7----------------------5-5-----
    Dm7 E7 Am
    2/--------5--8--6-----------------------------------------------------------
    3/--6--7-----------5--5----5--4-----------------------------------4-5-4---
    4/---------------------------------------------------------3--5--7-----------7
    5/----------------------------------------------3--5--7---------------------
    6/------------------------------------3--5--7-------------------------------
    เล่นเร็ว
    4/--9->10---5->7--0->2------------
    5/---------------------------0->2---0

    เริ่มร้องguitar2

    Dm7 Gsus4 Cmag7
    1/--5-------5--------8----5>7----------7------------------7---------------------7>8>7----
    2/-------6-------6------------------8-------------------8------8----------------8-----------8-5
    3/-----5--5---5------------------7---7-----------7>9---9------9-------7>9---9------------
    4/------------------------------5---------------10----------------------10----------------------
    5/--5------------------------------------------------------------------------------------------
    6/---------------------------------------------------------------------------------------------

    Dm7 Gsus4 Cmag7
    1/-------------5------7-----------7------------------7-----------------------7>8>7-----------
    2/---6----6------------------8------------------8------8----------------8-------------8>10>8---5
    3/------5---5-------------7----7----------7>9---9------9-------7>9---9-------------------
    4/---------------------5---------------10----------------------10----------------------------
    5/--5------------------------------------------------------------------------------------------
    6/---------------------------------------------------------------------------------------------


    Dm7 Gsus4 Cmag7 Am7
    1/------------5-----------------------10--8--7-----------------------7------8----8---
    2/-6------6------6------8------8-----------------8>10>8-----8--------------------
    3/-----5----5-------5--------7---7----------------------------9---9---9-------------
    4/------------------------5--------------------------------------------------------------
    5/-5-------------------------------------------------------------------------------------
    6/----------------------------------------------------------------------------------------

    Dm7 E7 Am A
    1/--------------------12--10-10--8--8--7--5
    2/------------9--9----------------------------

    Dm7 Gsus4 Cmaj7 Am7
    1/---------------8---10----10--8--7-----------------------7---8
    2/-----10--10-------------------------8>10>8--------8--------
    3/---------------------------------------------------7>9---9------


    Dm7 E7
    1/----------------8--7-----7--8->10
    2/----10--10------------------------

    solo guitar2
    Am Am7M Am7
    3/------------------------------------9--10--9>10>9--7----5--7-9-10--9>10>9--7
    4/--7-6-7->9--7--9->10--9-10---------------------------------------------------

    F7M Dm7 Gsus4 Cmaj7
    2/------------------------------------------------------------------------------------12
    3/--7--5--4--7--5--5----2--4--5--2-----2--4--5--7---7--9--10--7--9---9----9--9

    คอร์ด
    Am Am7M Am7 F7M Gsus4
    1/-5 5 5 5 3
    2/-5 5 5 5 1
    3/-5 5 5 5 0
    4/-7 6 5 3 0
    5/- 2
    6/- 3
    ตั้งสาย Ebนะ ยังแกะไม่หมดมึนแล้ว
  • วันใหม่
    Guest
  • 27 พ.ย.2549,07:50น.
    แจกเพลง clash-clashing 12 เพลง ด่วน
    p1 http://www.upload.th.md/download.php?id=195ADDF2
    p2 http://www.upload.th.md/download.php?id=981ABD53
  • 27 พ.ย.2549,11:17น.
    ไวจัง ต้องฟังด่วน
  • pd
    Guest
  • 27 พ.ย.2549,11:35น.
    มาแล้วเหรอคับ
  • seiryu
    Guest
  • 27 พ.ย.2549,12:31น.
    ชอบๆ
  • Bigger
    Guest
  • 27 พ.ย.2549,18:38น.
    เพราะมากเพลงนี้
  • ไอ
    Guest
  • 27 พ.ย.2549,18:56น.
    ง่า
    ทำไงอะค่ะ กดไม่เป็นอะค่ะ โหลดเพลงยังไงอะ ไม่ๆเปนอะบอกๆหน่อยนะค่ะ เป็นขั้นๆนะค่ะ
  • วันใหม่
    Guest
  • 27 พ.ย.2549,19:27น.
    ใส่ระหัส 3 ตัว แล้ว Enter รอ จนกว่าจาขึ้น download
  • HALLOWEEN
    Guest
  • 27 พ.ย.2549,20:34น.
    ชอบเพลงนี้อะ
  • กาย
    Guest
  • 27 พ.ย.2549,20:50น.
    เฮ้ๆๆๆๆๆๆๆๆๆๆๆๆๆๆๆๆๆๆๆๆๆๆๆๆๆๆๆๆๆๆๆๆๆ
  • POO
    Guest
  • 28 พ.ย.2549,12:29น.
    ขอบคุณครับ ทุกคนใจดีมากๆๆๆๆๆๆๆๆๆๆๆๆๆ
    ((ขอคอร์ดกีต้าร์))
  • พัชชีส์
    Guest
  • 28 พ.ย.2549,23:29น.
    ชอบวงแคลชจังเลย
  • 555
    Guest
  • 29 พ.ย.2549,11:38น.
    สุดยอด http://www.hotboard.tk
  • mmmmm_master
    Guest
  • 29 พ.ย.2549,21:06น.
    Intro

    2)--4h5--5/7/5--4h5--4h5p4--------------------------------------------------------------
    3)--------------------------------------4--------4/6---4/6/4--3h4--3h4p3--------4/5/4
    4)------------------------------------------6-----------------------------------------4-4---------

    2)---------------------5/7/5--------------------
    3)--2/4/6--6/8---------------4-4--3/4/3--
    4)-------------------------------------------------

    3)-----------------------------------3h4p3----------------------------------------------------
    4)------------------------3h5h7-------------6--8h9p8--5h7p5--4h5p4--2h3p2---
    5)-------------3h5h7-------------------------------------------------------------------------3/5
    6)--3h5h7--------------------------------------------------------------------------------------
  • mmmmm_master
    Guest
  • 29 พ.ย.2549,21:10น.
    Intro

    2)--4h5--5/7/5--4h5--4h5p4--------------------------------------------------------------
    3)--------------------------------------4--------4/6---4/6/4--3h4--3h4p3--------4/5/4
    4)------------------------------------------6-----------------------------------------4-4---------

    2)---------------------5/7/5--------------------
    3)--2/4/6--6/8---------------4-4--3/4/3--
    4)-------------------------------------------------

    3)-----------------------------------3h4p3----------------------------------------------------
    4)------------------------3h5h7-------------6--8h9p8--5h7p5--4h5p4--2h3p2---
    5)-------------3h5h7-------------------------------------------------------------------------0h2
    6)--3h5h7------------------------------------------------------------------------------------------3
  • หนึ่ง
    Guest
  • 30 พ.ย.2549,17:40น.
    http://www.upload.th.md/download.php?id=981ABD53


    โหลดไม่ได้แล้วอะคับ
  • เท่ง
    Guest
  • 30 พ.ย.2549,21:58น.
    เว็บโหลดเพลง โหลดหนังมากมายเข้าไปโหลดกันดิ แปลกกันจริงของฟรีมีมากมาย 
    www.step-club.net คลับนี้มีแต่การแบ่งปัน
  • กาย
    Guest
  • 2 ธ.ค.2549,13:09น.
    ขอ โซ โล่ ด้วย ค๊า บ บบ บ บSolo  อ่า  
    ((ขอคอร์ดกีต้าร์))
  • 555
    Guest
  • 2 ธ.ค.2549,19:32น.
    ไปถอดหัวพ่อเมิงให้ได้ก่อนนะค่อยมาบอกกู กูรำคาน
  • mmmmm_master
    Guest
  • 2 ธ.ค.2549,20:41น.
    Solo

    3)----------------7---------9----------8/9--8h9p8--6--2/4/6--6/8--9--8h9p8--
    4)--5/7--6--7-----6--7------6--7--------------------------------------------------------

    3)--4/6/4--3--4/6/4--4--------------------------------------------------------
    4)------------------------------4/6--6/8--8/9--6--4/6--6/8--8/9--9/11--

    3)------------------------------------------------15---------
    4)--9/11--13--14--11--11/13--11/13------13--13

  • ไม่บอก
    Guest
  • 5 ธ.ค.2549,16:14น.
    เค้าแกะเพลงนี้ได้งัยครับเก่งมากๆๆ

    ทำไปได้ครับ
  • ณัฐคุง
    Guest
  • 7 ธ.ค.2549,21:32น.
    พี่ๆน้องครับ ผมมีเรื่องแนะหน่อย ผมว่า เพลงนี้ติดแฟลตนะ พี่ๆน้องๆ ก็ช่วยกันแกะหน่อย ไอตรง โซโล่
    ก็แก้หน่อยนะครับผม บอกได้เท่านี้เพราะเพิ่งฟังเหมือนกัน

    เพลงนี้เพราะมากๆครับ ฟังแล้วซึม
  • 5541
    Guest
  • 10 ธ.ค.2549,20:47น.
    มีใคร แกะ แบบ เต็มๆๆๆๆๆๆ ได้ บ้าง ลงที เถอะ 
    เพาะ ๆๆๆๆๆๆๆๆๆๆๆๆๆๆๆๆๆๆๆๆๆๆๆๆ
  • คิ
    Guest
  • 10 ธ.ค.2549,23:29น.
    ขอหน่อยเหอะคับ ขอ แทบ เพลงนี้ทั้งเพลงเลย 



    คุณ น้อย ที่ลง ไว้อะคับ ช้วยต่อหน่อยเหอะคับ



    ขอขอบคุณอย่างยิ่งเลยคับ
    ((ขอคอร์ดกีต้าร์))
  • sleyer
    Guest
  • 12 ธ.ค.2549,12:35น.
    xxxxxxxxขอเนื้อเพลง ท้าชน หน่อยคับ ยังไม่เหนมีกระทู้เลย ใครมีตั้งหน่อยนะคับ มันส์มากxxxxx
    ((ขอคอร์ดกีต้าร์))
  • nook
    Guest
  • 13 ธ.ค.2549,19:40น.
    บ่อย....ที่ในหัวใจ เหมือนได้ยินเสียงเธอ และบ่อยที่นอนละเมอ ยังเผลอเรียกเธอ อย่างเดิม ซ้ำๆ แต่ก็รู้ว่าเธอนั้นไปไกลสุดฟ้า....และก็รู้ว่าเธอไม่มีวันคืนย้อนมา T-T
  • - - -
    Guest
  • 13 ธ.ค.2549,20:53น.
    ยังงงงงอยู่
  • unknow
    Guest
  • 13 ธ.ค.2549,20:54น.
    ช่วยอธิบายการจับคอร์ดให้เข้าใจหน่อยจิ
  • หนุ่ม เชียงราย
    Guest
  • 14 ธ.ค.2549,07:46น.
    คอร์ดเพลงนี้ยังไม่มีคะแนน (อย่าลืม ช่วยกันกดให้คะแนนคอร์ดเพลงที่คุณชื่นชอบ หรือตัดคะแนนคอร์ดที่คุณไม่ชอบ)
    เธอ 
    ศิลปิน : แคลช (Clash)
    เธอ
    Astist : Clash
    Album : Crashing
    Intro:D 8 times
    F/F/Dm/Dm/Bb/Bb/C/C

    F Dm
    เพียงแค่ได้เจอก็ใจละลาย ก็หวานซะเหลือเกิน

    Gm Bb C
    แค่มองก็หลงแทบตาย ทั้งที่เธอก็ไกลจนเกินจะคว้า

    F Dm
    ไม่รู้ว่าที่จริงเธอมีใครจอง แต่เสียงของหัวใจมันบอก

    Gm Bb C
    ไม่ขอแค่มอง ต้องบอกความจริงกับเธอสักที

    F Dm
    *ก็ขออภัยถ้าใจไม่เจียม ไม่รู้ยังไงก็คำคำเดียว

    Bb C
    เก็บมันไม่ไหว คงต้องว่าไปตามที่ใจต้องการ

    F Dm
    ต้องขออภัยถ้าพูดความจริงให้รู้ว่าเธอนั้นใช่จริงๆ

    Bb C
    กับคำว่ารัก เธอคงเข้าใจ คนมันห้ามใจไม่เป็น

    solo:F/F/Dm/Dm/Bb/Bb/C/C

    F Dm Gm
    รู้ว่าไม่ควรเพราะเธอเป็นใคร แต่ฝืนใจตัวเองมันทำไม่ได้ เท่าไหร่

    Bb C
    อย่าโกรธกันเลยถ้าเธอไม่เอา

    (ซ้ำ*)

    solo:Dm 4times
    Bb/Bb/F/F/Gm/Gm/Bb/C

    (ซ้ำ*)

    solo:F/F/Dm/Dm/Bb/Bb/C/C
    F


    ((ขอคอร์ดกีต้าร์))
  • รักจัง
    Guest
  • 25 ธ.ค.2549,21:51น.
    วงแคลชสู้ ๆ
  • อืม
    Guest
  • 30 ธ.ค.2549,21:10น.
    คุณ น้อย มีเมลล์มั้ยครับ อยากขอเพลงเก่าๆ ของแคลช
  • เด็กเชียงราย
    Guest
  • 31 ธ.ค.2549,11:02น.
    รักแคลชนิดๆ แต่รักนาน
  • เนตร [ลาดบัง2F/2]
    Guest
  • 31 ธ.ค.2549,19:43น.
    คอร์ดเพลงนี้ยังไม่มีคะแนน (อย่าลืม ช่วยกันกดให้คะแนนคอร์ดเพลงที่คุณชื่นชอบ หรือตัดคะแนนคอร์ดที่คุณไม่ชอบ)
     Intro: Turn to  Eเป็นEb ลดครึ่งเสียง

    1>--------------------------------------------------------------------------------------------------
    2>-----5-6---6/8---6--5--6---5---------------------------------------------------------------
    3>--------------------------------------5--------5/7-----5/7--5-4--5-4----------4/7---6--
    4>-------------------------------------------7--------------------------------5-5---------------
    5>------------------------------------------------------------------------------------------------
    6>-------------------------------------------------------------------------------------------------

    1>------------------------------------------------------
    2>------------------------------------------------------ จบนี้ แล้ก้อไล่ สเกล อาไรม่ายรู้อีก 2 ชุดเหอ
    3>-6--7---9---12----10-----------------4--5--4--
    4>----------------------------10---10----------------
    5>------------------------------------------------------
    6>----------------------------------------------------
    น่าจา ถูกน่า ไปปรับวิธีการ เล่นกันเองเน้อ ลูกเล่น อะจะ
  • เนตร
    Guest
  • 31 ธ.ค.2549,19:44น.
    ผมลอกมาจากmv ไม่ได้แกะเอง ปล. 555
  • เนตร
    Guest
  • 31 ธ.ค.2549,21:03น.
       ขอแก้ไขข้างบน หน่อยคับ สาย Eb             ลด ลง หนึ่งสายนะคับ เช่น.
    4-5 5/7 ลองเล่นตามเพลงและ มันต้องลดลง 1เฟลตถึงจาเสียงเท่าเพลง
  • เด็กอุดร
    Guest
  • 3 ม.ค.2550,22:01น.
    โครตเพราะอ่ะ ชอบอก
  • โบ ทร.
    Guest
  • 6 ม.ค.2550,17:24น.
    ชอบนี้นี้มากๆครับเพราะดีเนื้อหาได้ใจ
  • กกกกก
    Guest
  • 8 ม.ค.2550,15:33น.
    ชอบเพลงนี้มาก
  • กั๊งวงแคชร
    Guest
  • 8 ม.ค.2550,19:13น.
    ชวบแคชรมากครับจากกั๊งวงแคชร ((ขอคอร์ดกีต้าร์))
  • โอห์ม
    Guest
  • 8 ม.ค.2550,22:03น.
    อยากฟังเพลงนี้อะหาฟังไหนอะ
  • ชาคริต
    Guest
  • 9 ม.ค.2550,01:56น.
    ขอบคุณ ควรแกะให้ละเอียดกว่านี้
  • guitar SOLO ระดับเทพเจ้า!!!
    Guest
  • 12 ม.ค.2550,15:26น.
    นายคือ วงร๊อก ที่ข้าชอบอยู่ แคลช จงมีเพลงมันๆ!!!!ยังงี้ต่อไปเรื่อยนะ และเพลงเพราะ ยอ่างงี้ไปเรื่อยๆ เลยนะ นายแน่มาก แบงค์!!!!!!!
  • มือเบส วงToSsAKANZ
    Guest
  • 13 ม.ค.2550,12:11น.
    Intro: Turn to  Eเป็นEb ลดครึ่งเสียง

    1>--------------------------------------------------------------------------------------------------
    2>-----5-6---6/8---6--5--6---5---------------------------------------------------------------
    3>--------------------------------------5--------5/7-----5/7--5-4--5-4----------4/7---6--
    4>-------------------------------------------7--------------------------------5-5---------------
    5>------------------------------------------------------------------------------------------------
    6>-------------------------------------------------------------------------------------------------

    1>------------------------------------------------------
    2>------------------------------------------------------ 3>-6--7---9---12----10-----------------4--5--4--
    4>----------------------------10---10----------------
    5>------------------------------------------------------
    6>----------------------------------------------------
    จบนี้ แล้ก้อไล่ สเกล Dmaj7ตอนแรกจากบนลงล่าง
    แล้วก็ไล่แบบล่างขึ้นบนอีกรอบนึง

    น่าจา ถูกน่า ไปปรับวิธีการ เล่นกันเองเน้อ ลูกเล่น อะจะ
  • 14 ม.ค.2550,21:31น.
    ขอท่อน intro มันเร็วๆๆ ชอบตรงนี้มากแต่ฟังไม่เคยทันเลยย ใครได้ช่วยที่นะท่านอาจาย์
  • guitar SOLO ระดับเทพเจ้า!!!
    Guest
  • 16 ม.ค.2550,20:11น.
    อ่านะ
    1>
    2>5/6 8 6 5 6 5 8 6
    3> 5 5 5/7 5/7 5 4 5 4 5 6 8 9
    4> 7 5 5 6/7 6 6 8 9
    5>
    1>
    2>
    3>5 5 4/5 4 และก้อตึงติงติดตึงตึงๆๆ อะไรนี้แหล่ะครับทุกครนครับ โฮ้ย..เสียเวลาตั้ง 10 นาทีแน่ะกว่าจะแกะได้ มันง่ายๆๆๆๆแค่เนี้ยเอง!!!!!!!!!!55555
  • ...
    Guest
  • 20 ม.ค.2550,21:10น.
    มั่วป่าว
  • เเ
    Guest
  • 21 ม.ค.2550,15:01น.
    คอร์ดเพลงนี้ยังไม่มีคะแนน (อย่าลืม ช่วยกันกดให้คะแนนคอร์ดเพลงที่คุณชื่นชอบ หรือตัดคะแนนคอร์ดที่คุณไม่ชอบ)
    วังวน
    Astist : Clash
    Album : Crashing

    Intro : C#m/F#/Bmaj7/G#m7/C#m/Eb/G#m7//

    C#m F# Bmaj7
    ... บ่อยที่ในหัวใจ เหมือนได้ยินเสียงเธอ
    C#m F# Bmaj7
    และบ่อยที่นอนละเมอ ยังเผลอเรียกเธออย่างเดิม ซ้ำๆ
    C#m F# Bmaj7 G#m7
    * แต่ก็รู้ว่าเธอนั้นไปไกลสุดฟ้า และก็รู้ว่าเธอ ไม่มีวันคืนย้อนมา
    C#m Eb G#m7
    อยากจะทำตัว ทำหัวใจให้แข็งแรง เหมือนดังเดิมอีกครั้ง
    C#m F# Bmaj7 G#m7
    จะต้องเป็นอย่างนี้ นานเท่าไหร่ โอกาสที่มันจะหาย มองไม่เห็นทาง
    C#m Eb G#m7
    ติดอยู่ในวังวนที่ไร้ทางออก...เพราะว่ารักคำเดียว...

    Solo : G#m7/C#m/F#/G#m7/C#m/F#/Bmaj7

    (*)
  • อยากเล่นเก่ง
    Guest
  • 21 ม.ค.2550,19:12น.
    คอร์ดไหนอ่ะงงมี2อย่าง ง่ายกะยาก
    ((ขอคอร์ดกีต้าร์))
  • หห
    Guest
  • 22 ม.ค.2550,02:47น.
    ต้องไปดู mv แล้วจะรู้ พวกคุณมั่วชิบหาย
  • เราอ่อนงะ
    Guest
  • 22 ม.ค.2550,19:38น.
    ใครที่เล่นกีร์ต้าเก่งๆ อะ ช่วยแอดมาหน่อยได้ป่าว เผื่อว่ามีปัญหาอะไร ผมจะได้ถาม
    ขอความกรุณาหน่อยคร้าบ thecop_pnhotmail.com
  • sign
    Guest
  • 22 ม.ค.2550,19:56น.
    เพลงนี้ใช่เกาเอารึเปล่าอ่ะค่ะ
  • คนไร้นาม
    Guest
  • 24 ม.ค.2550,09:37น.
    เพลงนี้เพราะมากๆๆๆๆๆๆๆๆๆๆๆๆๆๆๆๆๆๆๆๆๆๆๆๆๆๆๆๆๆๆๆๆๆๆ
  • Bank-Refresh
    Guest
  • 28 ม.ค.2550,18:12น.
    ง่ายกว่านี้มีป่าว ขอบที่ Dm G C ด้วยนะครับ
  • ัีปีใหม่น่ารัก
    Guest
  • 30 ม.ค.2550,21:34น.
    คุณน้อยคับมาแกะหมดสิคับ ((ขอคอร์ดกีต้าร์))
  • แอน
    Guest
  • 31 ม.ค.2550,16:03น.
    ฟังเพลงนี้แร้วคิดถึงครายบางคนจัง ><"
  • 2 ก.พ.2550,00:08น.
    1>--------------------------------------------------------------------------------------------------
    2>-----5-6---6s8---6--5--6p5---------------------------------------------------------------
    3>--------------------------------------5--------5s7-----5s7--5-4--5p4----------5s7---6--
    4>-------------------------------------------7--------------------------------5-5---------------
    5>------------------------------------------------------------------------------------------------
    6>-------------------------------------------------------------------------------------------------

    1>------------------------------------------------------
    2>------------------------------------------------------
    3>-6--7---9s12----10-----------------4s5--4--
    4>----------------------------10---10----------------
    5>------------------------------------------------------
    6>----------------------------------------------------
  • กีตาร์สมัครเล่น
    Guest
  • 3 ก.พ.2550,21:18น.
    เพราะดีจัง แต่เล่นยากหน่อย
  • กด
    Guest
  • 4 ก.พ.2550,19:02น.
    สมัครเล่น 203.113.71.168 [ วันเสาร์ ที่ 3 กุมภาพันธ์ 2550 เวลา 21:18 น. ] [ x ] ผู้ตอบคนที่ 107
    เพราะดีจัง แต่เล่นยากหน่อย
  • Boo
    Guest
  • 8 ก.พ.2550,13:06น.
    อยากให้พี่แบงค์มาที่บ้านพี่นุอีกครับ ดาวคนอง
  • moo
    Guest
  • 8 ก.พ.2550,14:52น.
    สุดยอด.........................................................................ครับ
  • puk sing
    Guest
  • 9 ก.พ.2550,15:00น.
    สุดยอดครับโดนใจขา rock ((ขอคอร์ดกีต้าร์))
  • &quot;L&quot;
    Guest
  • 10 ก.พ.2550,11:47น.
    ก็ดีนะชอบอืมเอามาอีกสิ
  • เต่า
    Guest
  • 11 ก.พ.2550,01:38น.
    คอร์ดเพลงนี้ยังไม่มีคะแนน (อย่าลืม ช่วยกันกดให้คะแนนคอร์ดเพลงที่คุณชื่นชอบ หรือตัดคะแนนคอร์ดที่คุณไม่ชอบ)

    2>---5--6--6/7--6--5--6--5h6-----------------------------------------------
    3>-------------------------------------5--6--5/7--6/7--5--4--5--4----------
    4>--------------------------------------------------------------------------5--5--

    2>--------------------------5--6/7--7----------------------------------------
    3>--6/7--7/6--4/6--7----------------5--5--3/5--4---------------------
    3>-------------------------------------------------------------------------------

    ที่เหลือก็ไล่สเกลเอานะแต่ตัดเสียงฟาออกไป(ขีเกียจพิมพ์)
  • เต่า
    Guest
  • 11 ก.พ.2550,01:41น.
    คอร์ดเพลงนี้ยังไม่มีคะแนน (อย่าลืม ช่วยกันกดให้คะแนนคอร์ดเพลงที่คุณชื่นชอบ หรือตัดคะแนนคอร์ดที่คุณไม่ชอบ)

    2>---5--6--6/7--6--5--6--5h6-----------------------------------------------
    3>-------------------------------------5--6--5/7--6/7--5--4--5--4----------
    4>--------------------------------------------------------------------------5--5--

    2>------------------------5--6/7--7----------------------------------------
    3>--6/7--6--4/6--7-----------------5--5--3/5--4---------------------
    3>-------------------------------------------------------------------------------
    แก้ไข
  • pong
    Guest
  • 13 ก.พ.2550,17:15น.
    ช่วยลงสเกลที่ว่าให้หน่อยจิครับ เรื่องสเกลไม่รุ้จาหาดูที่ไหนเลย ใครมีช่วยลงด้วยคับขอบคุง
    ((ขอคอร์ดกีต้าร์))
  • เบคโรงต้ม
    Guest
  • 14 ก.พ.2550,17:32น.
    ก้อดีน่ะฮะ
  • โหน่ง วีรพันธ์
    Guest
  • 15 ก.พ.2550,12:22น.
    โดนเต็มๆ ชอบมาก ((ขอคอร์ดกีต้าร์))
  • กูเอง
    Guest
  • 15 ก.พ.2550,21:26น.
    งงแท็บมันดูงัย???
  • เยพกนื
    Guest
  • 17 ก.พ.2550,07:54น.
    แท็บงงดูไงอ่ะงับบอกทีน่ะ..................................
  • ปาน เองครับ
    Guest
  • 17 ก.พ.2550,14:39น.
    เริ่มก็ ***********ที่ ผม เขียน ว่า ขึ้น - ลง คือ การดันสายขึ้นลง นะคับ *****
    -----สาย2 ดีดครั้งที่1 -- ร่อง 8ควบมา9
    ดีดที่ 2 พร้อมกับ ลากไป 11 แล้วลากมา 9
    ดีด 3 ------8 ควบ 9 แล้วปล่อย 9
    ดีด 4 ดีด 8 ขึ้น-ลง แล้วลากกลับไปที่ 4
    ดีด 5-----4 ขึ้น-ลง
    ดีด 6------สาย 3 ช่องที่ 5 ขึ้น ลง
    ดีด 7-----สาย2 --ช่อง 4 ลากมา 6 ดันสาย ขึ้น ลง
    ดีด 8------สาย2 4 ลาก 6 ลากกลับ 4
    ดีด 9 ----- สาย2 ช่อง 3 ควบมา 4
    ดีด 10 -----สาย 2 ช่อง 3
    ดีด11-----สาย 3 ช่อง 4 ขึ้น ลง 2 ครั้ง
    ดีด12------สาย 3 ช่อง 4 ลากไป 6 ขึ้น ลง
    ดีด13------สาย3 ชอง 6 ขณะกำลังขึ้นลงอยุ่
    ดีด14-----สาย3 ช่อง 4 ขึ้น ลง
    ดีด 15 ----สาย 2 ช่อง 4 ควบมา 5
    ดีด 16 สาย 2 ช่อง 7
    ดีด 17 สาย 2 ช่อง 7 ลากไป 10 ลากกลับ 8
    ดีด 18 สาย 3 ช่อง
    ดีด19----สาย3 ช่อง7 2 ครั้ง ขณะ ขึ้นลง
    ดีด20----สาย 3 ช่อง 7 ควบมา 9
    ดีด21 ---สาย 3 ช่อง 6
    ดีด 22 ----สาย 3 ช่อง 6 ลากไป 7 ลากกลับ 6
    ดีด23--- สาย3 ช่อง 4
    ดีด24 ---สาย 3 ช่อง 3 ควบมา 4 แล้ว ปล่อย 4

    พอทำได้แค่นี้คับ ผิดพลาดไรขออภัย
  • ปาน เองครับ
    Guest
  • 18 ก.พ.2550,16:02น.
    แก้ไข คับ อันแรก มั่วมากเลย
    -----สาย2 ดีดครั้งที่1 -- ร่อง 8ควบมา9
    ดีดที่ 2 พร้อมกับ ลากไป 11 แล้วลากมา 9
    ดีด 3 ------8 ควบ 9 แล้วปล่อย 9
    ดีด 4 ดีด 8 ขึ้น-ลง แล้วลากกลับไปที่ 4
    ดีด 5-----4 ขึ้น-ลง
    ดีด 6------สาย 3 ช่องที่ 5 ขึ้น ลง
    ดีด 7-----สาย2 --ช่อง 4 ลากมา 6 ดันสาย ขึ้น ลง
    ดีด 8------สาย2 4 ลาก 6 ลากกลับ 4
    ดีด 9 ----- สาย2 ช่อง 3 ควบมา 4
    ดีด 10 -----สาย 2 ช่อง 3
    ดีด11-----สาย 3 ช่อง 4 ขึ้น ลง 2 ครั้ง
    12-----------สาย 2 ----ช่อง 4 ลากไป 6 ลากกลับ 5 ดันขึ้น
    13 ---------สาย 2-------ช่อง 5 ควบมา 6
    14 ---------สาย 2 ช่อ่ง 8
    15-----สาย 2 ----ช่อง 8 ลากไป 11 ลากกลับ
    16 สาย 3 ช่องที่ 8 2 ครั้ง ควบไป 10
    17--------สาย 3 ช่อง 7

    ได้แค่ เนี่ยคับไม่รู้ มั่วต้องยังไง ผิเพลาดไรขออภัย

  • 55+
    Guest
  • 18 ก.พ.2550,23:44น.
    คอร์ดเพลงนี้ยังไม่มีคะแนน
    (อย่าลืม ช่วยกันกดให้คะแนนคอร์ดเพลงที่คุณชื่นชอบ หรือตัดคะแนนคอร์ดที่คุณไม่ชอบได้เลย)
    วังวน
    Astist : Clash
    Album : Crashing

    Intro : C#m/F#/Bmaj7/G#m7/C#m/Eb/G#m7//

    C#m F# Bmaj7
    ... บ่อยที่ในหัวใจ เหมือนได้ยินเสียงเธอ
    C#m F# Bmaj7
    และบ่อยที่นอนละเมอ ยังเผลอเรียกเธออย่างเดิม ซ้ำๆ
    C#m F# Bmaj7 G#m7
    * แต่ก็รู้ว่าเธอนั้นไปไกลสุดฟ้า และก็รู้ว่าเธอ ไม่มีวันคืนย้อนมา
    C#m Eb G#m7
    อยากจะทำตัว ทำหัวใจให้แข็งแรง เหมือนดังเดิมอีกครั้ง
    C#m F# Bmaj7 G#m7
    จะต้องเป็นอย่างนี้ นานเท่าไหร่ โอกาสที่มันจะหาย มองไม่เห็นทาง
    C#m Eb G#m7
    ติดอยู่ในวังวนที่ไร้ทางออก...เพราะว่ารักคำเดียว...

    Solo : G#m7/C#m/F#/G#m7/C#m/F#/Bmaj7

    (*)

    2>---5--6--6/7--6--5--6--5h6-----------------------------------------------
    3>-------------------------------------5--6--5/7--6/7--5--4--5--4----------
    4>--------------------------------------------------------------------------5--5--

    2>------------------------5--6/7--7----------------------------------------
    3>--6/7--6--4/6--7-----------------5--5--3/5--4---------------------
    3>-------------------------------------------------------------------------------
    แก้ไข
  • ดอย
    Guest
  • 22 ก.พ.2550,09:52น.
    ชอบแคลชมากๆแล้วก็ชอบมานานแล้วด้วย
  • แมน2/6
    Guest
  • 23 ก.พ.2550,11:52น.
    โดนมากๆๆๆๆๆๆๆๆๆๆๆๆๆๆๆๆๆๆๆๆๆๆๆๆๆๆๆๆๆๆครับ
  • เจจ้า
    Guest
  • 1 มี.ค.2550,17:46น.
    Solo ถูกมั้ยนั้น อยากจะโซโลได้จังเพราะมากเลย ชอบเพลงนี้อ่ะครับ

  • Mr.mayday
    Guest
  • 14 มี.ค.2550,10:19น.
    ไมมั่วกันอย่างเนี้ยเหอๆ

    ผมแกะจากMVแต่ผมขอโทดนะขี้งก

    ขี้เกียจเขียนแทบด้วย

    แล้วพอเขียนไปแล้วเอาไปเล่นไม่เข้าจังหวะเองแล้วหาว่าผิดก็ด่ากุให้มากแล้วเบื่อพวกเกรียน


  • Mr.mayday
    Guest
  • 14 มี.ค.2550,10:37น.
    คอร์ดเพลงนี้ยังไม่มีคะแนน (อย่าลืม ช่วยกันกดให้คะแนนคอร์ดเพลงที่คุณชื่นชอบ หรือตัดคะแนนคอร์ดที่คุณไม่ชอบ)

    เพลงนี้ครับบอกให้หวังดีบอกแทบก็ได้เด๋วบอกให้ดูแล้วอย่างง

    เล่นเลียนแบบพี่แฮ็กเลยนะ เพลงนี้ทดสาย ครึ่งเสียง

    TEB
    2--5h6/8/6-5h6-5hp6
    3--------------------------------5---5/7--5/7--5/4/5--4-------5/7---6--6-7-7/9-9/12/10--
    4-----------------------------------7----------------------------5-5


    3--5-5-3/5/4

    ไล่สเกลจับกันเอาเองนะครับ

    เครื่องมหายต่างๆ
    h=ตบสายครับ
    hp=ตบสายแล้วปล่อยให้มีเสียงของตัวโน๊ตที่เราจับอยู่ครับ
    /=สไลสาย ถ้างงก็ลองหัดดูเองเล่นให้ตายเพลงหละชัวแน่ๆ

    ถ้าผิดขอประทานอภัยอย่างสูง- -เพราะแกะตามเพลงแล้วเล่นยังเงี้ยเปียบ
  • ขวัญ ก.ล.
    Guest
  • 17 มี.ค.2550,13:25น.
    เกิดวันเดียวกันเลย
  • น้องขวัญ ก.ล.
    Guest
  • 17 มี.ค.2550,13:30น.
    เพลงCLASHเข้ากับคนอกหักได้ดีทีเดียวชอบมาก
  • นัทเด็กเมืองชล
    Guest
  • 18 มี.ค.2550,18:31น.
    เพลงนี้ผมขอไห้เนม
    ผมรู้ว่ายังไงๆเราก้อไม่มีวันกลับมาเหมือนเดิมอีกแร้ว
  • 26 มี.ค.2550,12:19น.
    ขอเกากีต้า1ท่อนร้องเลยครับ เราเล่นไม่เก่ง ((ขอคอร์ดกีต้าร์))
  • oนัท
    Guest
  • 26 มี.ค.2550,19:27น.
    ทำไมร้องกันต่ำจังครับ
    ผมว่าเค้าเล่นคีย์ D นะ
    ประมาณ Dm7 คอร์ดขึ้นลองไปแกะดู
  • เด็ก ลำปาง
    Guest
  • 27 มี.ค.2550,11:10น.
    เก่งกันจังเยย เเร้วสเกลอาไรหรอครับ บอกผมที
  • นัทผู้ตอบคนเดิมจากคนที่132
    Guest
  • 29 มี.ค.2550,17:17น.
    คอร์ดเพลงนี้ยังไม่มีคะแนน (อย่าลืม ช่วยกันกดให้คะแนนคอร์ดเพลงที่คุณชื่นชอบ หรือตัดคะแนนคอร์ดที่คุณไม่ชอบ)
    Intro : Dm7/G/C/Am/Dm7/G/Am//

    Dm7 G C
    ... บ่อยที่ในหัวใจ เหมือนได้ยินเสียงเธอ
    Dm7 G C A
    และบ่อยที่นอนละเมอ ยังเผลอเรียกเธออย่างเดิม ซ้ำๆ
    Dm7 G C Am
    * แต่ก็รู้ว่าเธอนั้นไปไกลสุดฟ้า และก็รู้ว่าเธอ ไม่มีวันคืนย้อนมา
    Dm7 G Am A
    อยากจะทำตัว ทำหัวใจให้แข็งแรง เหมือนดังเดิมอีกครั้ง
    Dm7 G C Am
    จะต้องเป็นอย่างนี้ นานเท่าไหร่ โอกาสที่มันจะหาย มองไม่เห็นทาง
    Dm7 G Am
    ติดอยู่ในวังวนที่ไร้ทางออก...เพราะว่ารักคำเดียว...

    Solo : /Dm7/G/Am/Dm7/G/C


    ลองดูนะครับถูกไม่ถูกก้ออย่าว่ากันนะครับ
    ของผมไว้สำหรับคนเล่นคีย์มาตาฐานอ่าครับสูงกว่าC#mครึ่งเสียง
  • เหน่ง ยโสธร
    Guest
  • 31 มี.ค.2550,00:20น.
    ผมรัก แบงค์ มากที่สุด แต่ว่าไม่เท่า ผมรักดา ครับ รักเธอสุด ๆ neng
  • 1 เม.ย.2550,16:33น.
    solo ตรงๆอ่ามีไหมครับผมม่ะเก่ง
  • - -*
    Guest
  • 19 เม.ย.2550,21:44น.
    สะเกลที่เค้าไล่อะมันคีไร ตัดเสียงตรงไหนหรือป่าว คนที่รู้อ่านข้อความนี้แล้วบอกกันบ้างนะ ด่วน
  • - -*
    Guest
  • 19 เม.ย.2550,22:30น.
    สะเกลไรหลอคีไรอะ บอกด้วย !!!! คนที่เล่นเก่งๆช่วยอธิบายให้มากกว่านี้ได้ไหมอะ เซง จิต
  • คนเล่นกีต้าร์
    Guest
  • 20 เม.ย.2550,19:18น.
    สุดยอดเลย
  • อยากรู้
    Guest
  • 21 เม.ย.2550,13:58น.
    เขาไล่สเกลอะไรกันบอกที่คับผมไม้รู้
  • มือใหม่
    Guest
  • 22 เม.ย.2550,20:12น.
    ไล่สะเกลไม่เป็นครับ ขอร้องช่วยพิมพ์ให้ดูหน่อยนะครับ เซียนๆทั้งหลายช่วยด้วยนะครับ
  • เด็กน้อย อยากเล่น
    Guest
  • 2 พ.ค.2550,08:33น.
    พี่ครับ h คือ ตบสาย แล้วตบสาบคืออะไรอะ
    แล้ว p อีกตัว งงงงงงงงงงงงงงงงงงงงงงงง
  • คนสวย
    Guest
  • 25 พ.ค.2550,09:56น.
    รักพี่แบงค์มั่ก
  • คนหัดเล่น
    Guest
  • 15 มิ.ย.2550,08:13น.
    สุดยอดครับน่าจะบอกการโซโล่ให้ด้วยนะครับ ((ขอคอร์ดกีต้าร์))
  • ฟ้าใส
    Guest
  • 16 มิ.ย.2550,17:16น.
    โซโล ม่าเปงอ่ะค่ะ ชอบเล่งกีต้านะ เรื่องดนตรีๆอ่ะ ชอบมากมาย เปงไรที่เพราะดี สื่อถึงอารมได้ ยิ่งเพลงนี้ เค้าว่าสุดๆนะ
  • หน่อย b.p.s รุ่น 10
    Guest
  • 18 มิ.ย.2550,14:56น.
    ชอบพี่แบงค์ มากๆ เลย ชอบเพลงทุกเพลงของพี่แบงค์หมดเลย
  • Ben
    Guest
  • 24 มิ.ย.2550,22:16น.
    เพลงใหม่ของ Clash อะปาว? ลองฟังดูดิ

    http://www.4shared.com/file/18197742/7a09f74c/Clash_-_.html
  • ชมพู่
    Guest
  • 25 มิ.ย.2550,13:28น.
    รักพี่แบงค์มาก มากเลยค่ะ
    ชอบพี่ ปรีติ บารมีอนันต์
  • คนเริ่มแกะเพลง
    Guest
  • 29 มิ.ย.2550,23:11น.
    ดู...........ดูไม่ออกเลย เขาอ่านยังงายนะใครช่วยบอกที
  • เด็กหัดเล่น
    Guest
  • 6 ก.ค.2550,20:04น.
    ผมว่าของ น้อย ใช้ได้เลยครับ ลองเอาไปเลนดูแล้ว
  • ผมเอง
    Guest
  • 8 ก.ค.2550,20:22น.
    แกะได้แค่นี้เหรอ+++โง่จัง
  • ผู้หวัง ดี
    Guest
  • 24 ก.ค.2550,20:20น.
    คอร์ดเพลงนี้ยังไม่มีคะแนน
    (อย่าลืม ช่วยกันกดให้คะแนนคอร์ดเพลงที่คุณชื่นชอบ หรือตัดคะแนนคอร์ดที่คุณไม่ชอบได้เลย)
     เล่น Tune Eb นะย้ำ Eb ไม่ต้องก็ดะเด๋วลดให้เอง ชัว!!                 
    Dm7 Gsus4 Cmaj7 A7
    2/--4--5p7---5--4--5--4-------------------------------------
    3/-----------------------------4----6---6--4--3--4-3-------6--5
    4/--------------------------------6----------------------4-4-----
    Dm7 E7 Am
    2/--------4--7--5-----------------------------------------------------------
    3/--5--6-----------4--4----4--.-----------------------------------4-5-4---
    4/---------------------------------------------------------3--5--7-----------7 C scale
    5/----------------------------------------------3--5--7---------------------
    6/------------------------------------3--5--7-------------------------------
    เล่นจังหวะเขบ๊ต 2 ชั้น
    4/--9->10---5->7--0->2------------
    5/---------------------------0->2---0
  • แก้
    Guest
  • 24 ก.ค.2550,20:21น.
                              Dm7                E7                                                 Am
    2/--------4--7--5-----------------------------------------------------------
    3/--5--6-----------4--4----4--3-----------------------------------4-5-4---
    4/---------------------------------------------------------3--5--7-----------7 C scale
    5/----------------------------------------------3--5--7---------------------
    6/------------------------------------3--5--7-------------------------------
    เล่นจังหวะเขบ๊ต 2 ชั้น
  • เอ
    Guest
  • 26 ก.ค.2550,17:03น.
    คอร์ดเพลงนี้ยังไม่มีคะแนน (อย่าลืม ช่วยกันกดให้คะแนนคอร์ดเพลงที่คุณชื่นชอบ หรือตัดคะแนนคอร์ดที่คุณไม่ชอบ)
     


    วังวน
    ศิลปิน : แคลช (Clash)
    วังวน
    Astist : Clash
    Album : Crashing

    Intro : C#m/F#/Bmaj7/G#m7/C#m/Eb/G#m7//

    C#m F# Bmaj7
    ... บ่อยที่ในหัวใจ เหมือนได้ยินเสียงเธอ
    C#m F# Bmaj7
    และบ่อยที่นอนละเมอ ยังเผลอเรียกเธออย่างเดิม ซ้ำๆ
    C#m F# Bmaj7 G#m7
    * แต่ก็รู้ว่าเธอนั้นไปไกลสุดฟ้า และก็รู้ว่าเธอ ไม่มีวันคืนย้อนมา
    C#m Eb G#m7
    อยากจะทำตัว ทำหัวใจให้แข็งแรง เหมือนดังเดิมอีกครั้ง
    C#m F# Bmaj7 G#m7
    จะต้องเป็นอย่างนี้ นานเท่าไหร่ โอกาสที่มันจะหาย มองไม่เห็นทาง
    C#m Eb G#m7
    ติดอยู่ในวังวนที่ไร้ทางออก...เพราะว่ารักคำเดียว...

    Solo : G#m7/C#m/F#/G#m7/C#m/F#/Bmaj7




  • &amp;#9733;CLAS&amp;#1186; A|2&amp;#16
    Guest
  • 6 ส.ค.2550,21:00น.
    เพลงนี้ ทำให้พี่แบงค์บ่อน้ำตาแตก กลางคอนเสิร์ตเลย ขอบอกๆ
  • XeEiZaz
    Guest
  • 18 ส.ค.2550,19:57น.
    คอร์ดเพลงนี้ยังไม่มีคะแนน (อย่าลืม ช่วยกันกดให้คะแนนคอร์ดเพลงที่คุณชื่นชอบ หรือตัดคะแนนคอร์ดที่คุณไม่ชอบ)

    intro

    1|---------------------------------------------------------------------------------------------------
    2|--5h6--/8\6--5/6--5------------------------------------------------------------------------
    3|------------------------------5-----(5)/7----/7\5--4h5-(4)h(5)p4-----------/7-6------
    4|----------------------------------7-------------------------------------------5-5---------------
    5|--------------------------------------------------------------------------------------------------
    6|--------------------------------------------------------------------------------------------------

    1|-------------------------------------------------------------------------------------------------
    2|---------------5--(6)/8\6--------------------------------------------------------------------
    3|--(4)/6--7--------------------5-5--(4)h5\4----------------------------4h5p4----------
    4|---------------------------------------------------------------------3-5-7-----------7--------
    5|-------------------------------------------------------------3-5-7-----------------------------
    6|-----------------------------------------------------3-5-7-------------------------------------

    1|------------------------------------------
    2|------------------------------------------
    3|------------------------------------------
    4|--9h10--5h7--0h2------------------
    5|-------------------------0h2-0--------
    6|-----------------------------------------
  • WaVe100Za
    Guest
  • 1 ก.ย.2550,23:34น.
    สอนดูTabกีต้าหน่อยครับ ดูแล้วงง ทำตามไม่ได้เลยครับ
  • มือใหม่
    Guest
  • 2 ก.ย.2550,13:33น.
    Gsus4 จับยังไง
  • NiC|&lt; Subter|inband
    Guest
  • 19 ก.ย.2550,19:28น.
    2>---5--6--6/7--6--5--6--5h6-----------------------------------------------
    3>-------------------------------------5--6--5/7--6/7--5--4--5--4----------
    4>--------------------------------------------------------------------------5--5--

    2>------------------------5--6/7--7----------------------------------------
    3>--6/7--6--4/6--7-----------------5--5--3/5--4---------------------
    3>-------------------------------------------------------------------------------

    3)-----------------------------------3h4p3----------------------------------------------------
    4)------------------------3h5h7-------------6--8h9p8--5h7p5--4h5p4--2h3p2---
    5)-------------3h5h7-------------------------------------------------------------------------3/5
    6)--3h5h7--------------------------------------------------------------------------------------
  • ...
    Guest
  • 19 ก.ย.2550,19:54น.
    คอร์ดเพลงนี้ยังไม่มีคะแนน (อย่าลืม ช่วยกันกดให้คะแนนคอร์ดเพลงที่คุณชื่นชอบ หรือตัดคะแนนคอร์ดที่คุณไม่ชอบ)
    Intro : Dm7/G/C/Am/Dm7/G/Am//

    Dm7 G C
    ... บ่อยที่ในหัวใจ เหมือนได้ยินเสียงเธอ
    Dm7 G C A
    และบ่อยที่นอนละเมอ ยังเผลอเรียกเธออย่างเดิม ซ้ำๆ
    Dm7 G C Am
    * แต่ก็รู้ว่าเธอนั้นไปไกลสุดฟ้า และก็รู้ว่าเธอ ไม่มีวันคืนย้อนมา
    Dm7 G Am A
    อยากจะทำตัว ทำหัวใจให้แข็งแรง เหมือนดังเดิมอีกครั้ง
    Dm7 G C Am
    จะต้องเป็นอย่างนี้ นานเท่าไหร่ โอกาสที่มันจะหาย มองไม่เห็นทาง
    Dm7 G Am
    ติดอยู่ในวังวนที่ไร้ทางออก...เพราะว่ารักคำเดียว...

    Solo : /Dm7/G/Am/Dm7/G/C


  • ...........
    Guest
  • 19 ก.ย.2550,19:58น.
    3)----------------7---------9----------8/9--8h9p8--6--2/4/6--6/8--9--8h9p8--
    4)--5/7--6--7-----6--7------6--7--------------------------------------------------------

    3)--4/6/4--3--4/6/4--4--------------------------------------------------------
    4)------------------------------4/6--6/8--8/9--6--4/6--6/8--8/9--9/11--

    3)------------------------------------------------15---------
    4)--9/11--13--14--11--11/13--11/13------13--13
  • ......................
    Guest
  • 19 ก.ย.2550,20:01น.
    solo guitar2
    Am Am7M Am7
    3/------------------------------------9--10--9>10>9--7----5--7-9-10--9>10>9--7
    4/--7-6-7->9--7--9->10--9-10---------------------------------------------------

    F7M Dm7 Gsus4 Cmaj7
    2/------------------------------------------------------------------------------------12
    3/--7--5--4--7--5--5----2--4--5--2-----2--4--5--7---7--9--10--7--9---9----9--9

  • นุคับ
    Guest
  • 25 ก.ย.2550,10:32น.
    -ขอโนดง่ายๆได้ป่าวคับ
  • ๐O_Drirymanclub_O๐
    Guest
  • 5 ต.ค.2550,19:01น.
    *0*เจ๋งสุดๆ______!!!!!!!คัยไล่สเกลเป็นช่วยโพสทีคับอยากรู้
  • ผู้ไร้นาม
    Guest
  • 8 ต.ค.2550,10:17น.
    ยากจังง่ะเพลงนี้
  • skoobadragon
    Guest
  • 18 ต.ค.2550,16:56น.
    ไล่สะเกลไงครับ เอาแบบเตมเลย แล้วถ้าให้ดีขอทีเกาด้วยอ่ะ เอาแบที่เข้าใจง่ายๆน่ะ มือใหม่ คัยรุ้แอดมาก้อได้ครับ skoobadragonhotmail.com ด่วนๆๆๆ จาออกงาน
  • ko..0.0
    Guest
  • 19 ต.ค.2550,14:06น.
    เพลงเพราะมากและเข้าอารม chotchawan.nwhotmail.comแอ็ดมาคุยกัน
    ((ขอคอร์ดกีต้าร์))
  • DarK_DeviL
    Guest
  • 20 ต.ค.2550,10:30น.
    คอร์ดเพลงนี้ยังไม่มีคะแนน (อย่าลืม ช่วยกันกดให้คะแนนคอร์ดเพลงที่คุณชื่นชอบ หรือตัดคะแนนคอร์ดที่คุณไม่ชอบ)


    อันนี้ท่อนเริ่มเลยน่ะ ถูกที่สุดแระ
    2>---5--6--6/8--6--5--6--5-----------------------------------------------
    3>---------------------------------5-----5/7--5/7--5--4--5--4----------
    4>------------------------------------7---------------------------------5--5--

    2>---------------------------------------------------------------------------
    3>--5/7--6---7---8---9/12--10----------------------------------------
    3>------------------------------------10--10--4/5--4--------------------

    ที่เกาอ่ะน่ะ เกาตามนี้น่ะ
    เบด 3-2-3-1-3-2-3- อย่างงี้ตลอดเลยน่ะ แล้วจับคอร์ตามข้างล่าง น่ะ

    Dm7 G C
    ... บ่อยที่ในหัวใจ เหมือนได้ยินเสียงเธอ
    Dm7 G C A
    และบ่อยที่นอนละเมอ ยังเผลอเรียกเธออย่างเดิม ซ้ำๆ
    Dm7 G C Am
    * แต่ก็รู้ว่าเธอนั้นไปไกลสุดฟ้า และก็รู้ว่าเธอ ไม่มีวันคืนย้อนมา
    Dm7 G Am A
    อยากจะทำตัว ทำหัวใจให้แข็งแรง เหมือนดังเดิมอีกครั้ง
    Dm7 G C Am
    จะต้องเป็นอย่างนี้ นานเท่าไหร่ โอกาสที่มันจะหาย มองไม่เห็นทาง
    Dm7 G Am
    ติดอยู่ในวังวนที่ไร้ทางออก...เพราะว่ารักคำเดียว...

    Solo : /Dm7/G/Am/Dm7/G/C
  • 9391633
    Guest
  • 20 ต.ค.2550,10:52น.
    เพราะมากเลย
  • เกษราภรณ์ จาก ประทาย (แคท)
    Guest
  • 22 ต.ค.2550,07:07น.
    เสียใจด้วยนะเรื่องแม่ จากแคท
  • skoobadragon
    Guest
  • 22 ต.ค.2550,16:45น.
    ไล่สะเกลไงครับ เทพอยู่ไหนๆๆๆๆๆๆๆๆๆๆๆๆๆๆๆๆๆๆๆ
  • ผมเองคร้าบ
    Guest
  • 24 ต.ค.2550,22:02น.
    ผมรักตัวเองคร้าบ
  • แสดา
    Guest
  • 24 ต.ค.2550,23:34น.
    สุดยอด
  • คนๆนี้ขอ TAB เพลง วังวน
    Guest
  • 30 ต.ค.2550,22:34น.
    ขอ TAB เวลาเกาไปร้องไปหน่อยครับ พวก Solo Intro โพสต์กันเยอะแล้ว แต่ตอนร้องไม่รู้จะเล่นยังไง


    -ขอ TAB วังวน ท่อนที่ร้อง ทั้งหมดเลยครับ-
  • DarK_DeviL
    Guest
  • 1 พ.ย.2550,19:54น.
    ก้อบอกไปแล้วไงอ่านบ้างซิ
    เบด 3-2-3-1-3-2-3- อย่างงี้ตลอดเลยน่ะ แล้วจับคอร์ดตามที่ให้ไว้น่ะ
  • คนๆเดิม ขอ TAB เพลง วังวน
    Guest
  • 2 พ.ย.2550,19:22น.
    ยังไงอ่า เบด 3-2-3-1-3-2-3 คือ เล่นกีตาร์อ่ะ - - ขอโทษนะครับ ผมไม่ค่อยรู้เรื่อง ช่วยพิมพ์อธิบายให้หน่อยนะครับ ขอบพระคุณเป็นอย่างสูง...
  • เตเต้
    Guest
  • 6 พ.ย.2550,20:34น.
    ขอ Tab Bass หน่อยนะครับ
  • เต็ม13อิอิ
    Guest
  • 8 พ.ย.2550,21:00น.
    พี่น้อยเทพจังงะ
  • น้องผู้อาพับบบบ
    Guest
  • 9 พ.ย.2550,23:00น.
    อยากเล่นกีต้าร์เป็น แต่ไม่มีคนสอน ทำไงดี ช่วยบอกหน่อยเหอะค่ะ พลีส
    พี่มันเล่นเป็นแต่มันไม่ยอมสอน
  • กุ้ง
    Guest
  • 10 พ.ย.2550,02:25น.
    คอร์ดเพลงนี้ยังไม่มีคะแนน (อย่าลืม ช่วยกันกดให้คะแนนคอร์ดเพลงที่คุณชื่นชอบ หรือตัดคะแนนคอร์ดที่คุณไม่ชอบ)
    โทษครับ วง Cash เขาใช่ขึ้นตนด้วย Cm7 ครับ
    หมายความว่า
    Intro : C#m/F#/Bmaj7/G#m7/C#m/Eb/G#m7//

    Cm7 F Bbmaj7
    ... บ่อยที่ในหัวใจ เหมือนได้ยินเสียงเธอ
    Cm7 F Bbmaj7
    และบ่อยที่นอนละเมอ ยังเผลอเรียกเธออย่างเดิม ซ้ำๆ
    Cm7 F Bbmaj7 Gm7
    * แต่ก็รู้ว่าเธอนั้นไปไกลสุดฟ้า และก็รู้ว่าเธอ ไม่มีวันคืนย้อนมา
    Cm7 D Gm7 G
    อยากจะทำตัว ทำหัวใจให้แข็งแรง เหมือนดังเดิมอีกครั้ง
    Cm7 F Bbmaj7 Gm7
    จะต้องเป็นอย่างนี้ นานเท่าไหร่ โอกาสที่มันจะหาย มองไม่เห็นทาง
    Cm7 D Gm7
    ติดอยู่ในวังวนที่ไร้ทางออก...เพราะว่ารักคำเดียว...

    Solo : Gm7/Cm7/F/Gm7/Cm7/F/Bbmaj7

    ชัวครับ แน่นอน ไปดูวง Clash เล่นมา Yo !
  • ทีมงานเกรียน
    Guest
  • 15 พ.ย.2550,09:22น.
    เฮ้123เพลงนี้เจ๋งหว่า.................................. ((ขอคอร์ดกีต้าร์))
  • DarK_DeviL
    Guest
  • 21 พ.ย.2550,22:02น.
    เบด 3231323 ก้อคือกีต้านั้นแหละ เบดที่ว่าก้อคือสาย 6 หรือ 5 หรือ 4 อ่ะ แล้วแต่ว่าจับคอร์ดไหนน่ะ ตัวอย่างคือ 5-3-2-3-1-3-2-3 นี้คือที่เกาน่ะ เกาอย่างงี้ทั้งเพลงเลย แต่มานคือกีต้าตัวที่ 2 น่ะ ตัวที่พี่พลเล่นอ่ะ ส่วนแฮ๊ค ก้อคือท่อนโซโล่อ่ะ
  • dACURA
    Guest
  • 24 พ.ย.2550,08:03น.
    เอามาผากแพะเองกับนิ้วเลย

    2----5p6>8--6--5p6----5h6------------------------------------------------------------------
    3-------------------------------------7----7>9-----8>9--7--6p7--6>7>6--5-5--6>8-7-----

    2----------6-7-8>10--8---------------------------------------------------------------------------------
    3---7>8--------------------7-7-6>7-6------------------------------------------------------------------------

    ส่วนการเล่นf(หรือที่ดันสายขึ้น-ลง)กูฟังแล้วประยุกต์เอาเองน่ะคับผมเพิ่งหัดเล่นมาได้2อาทิดเองไม่มีใครสอนเลย อยู่ที่จังหวัดนครศรีธรรมราช ใครเล่นเก๋าๆแอดเมล์หรือเอมมาที
  • กรูเล่นแล้วไม่ใช่
    Guest
  • 26 พ.ย.2550,16:36น.
    ไอ้ปานเองคับ มั่วป่าววะกากมากวะสัสเอย ((ขอคอร์ดกีต้าร์))
  • -*-
    Guest
  • 30 พ.ย.2550,21:37น.
  • ng
    Guest
  • 4 ธ.ค.2550,16:24น.
    คอร์ดเพลงนี้ยังไม่มีคะแนน (อย่าลืม ช่วยกันกดให้คะแนนคอร์ดเพลงที่คุณชื่นชอบ หรือตัดคะแนนคอร์ดที่คุณไม่ชอบ)
    วังวน
    Astist : Clash
    Album : Crashing

    Intro : C#m/F#/Bmaj7/G#m7/C#m/Eb/G#m7//

    C#m F# Bmaj7
    ... บ่อยที่ในหัวใจ เหมือนได้ยินเสียงเธอ
    C#m F# Bmaj7
    และบ่อยที่นอนละเมอ ยังเผลอเรียกเธออย่างเดิม ซ้ำๆ
    C#m F# Bmaj7 G#m7
    * แต่ก็รู้ว่าเธอนั้นไปไกลสุดฟ้า และก็รู้ว่าเธอ ไม่มีวันคืนย้อนมา
    C#m Eb G#m7
    อยากจะทำตัว ทำหัวใจให้แข็งแรง เหมือนดังเดิมอีกครั้ง
    C#m F# Bmaj7 G#m7
    จะต้องเป็นอย่างนี้ นานเท่าไหร่ โอกาสที่มันจะหาย มองไม่เห็นทาง
    C#m Eb G#m7
    ติดอยู่ในวังวนที่ไร้ทางออก...เพราะว่ารักคำเดียว...

    Solo : G#m7/C#m/F#/G#m7/C#m/F#/Bmaj7

    (*) intro-----สาย2 ดีดครั้งที่1 -- ร่อง 8ควบมา9
    ดีดที่ 2 พร้อมกับ ลากไป 11 แล้วลากมา 9
    ดีด 3 ------8 ควบ 9 แล้วปล่อย 9
    ดีด 4 ดีด 8 ขึ้น-ลง แล้วลากกลับไปที่ 4
    ดีด 5-----4 ขึ้น-ลง
    ดีด 6------สาย 3 ช่องที่ 5 ขึ้น ลง
    ดีด 7-----สาย2 --ช่อง 4 ลากมา 6 ดันสาย ขึ้น ลง
    ดีด 8------สาย2 4 ลาก 6 ลากกลับ 4
    ดีด 9 ----- สาย2 ช่อง 3 ควบมา 4
    ดีด 10 -----สาย 2 ช่อง 3
    ดีด11-----สาย 3 ช่อง 4 ขึ้น ลง 2 ครั้ง
    12-----------สาย 2 ----ช่อง 4 ลากไป 6 ลากกลับ 5 ดันขึ้น
    13 ---------สาย 2-------ช่อง 5 ควบมา 6
    14 ---------สาย 2 ช่อ่ง 8
    15-----สาย 2 ----ช่อง 8 ลากไป 11 ลากกลับ
    16 สาย 3 ช่องที่ 8 2 ครั้ง ควบไป 10
    17--------สาย 3 ช่อง 7

    ได้แค่ เนี่ยคับไม่รู้ มั่วต้องยังไง ผิเพลาดไรขออภัย


  • กุล่ะงง
    Guest
  • 5 ธ.ค.2550,09:59น.
    งง ว่ะ
  • คนหัดเล่นอะ
    Guest
  • 13 ธ.ค.2550,20:46น.
    โทดนะครับใครก็ได้ช่วยอธิบายของการอ่านสเกลได้ปะครับผมไมเข้าใจว่า2-----------5-6-6/8พวกนี้อะครับอ่านว่าอย่างไรช่วยบอกที่นะครับถื่อว่าช่วยคนคนหนึ่งนะครับหัดเล่นแต่อ่านไมอออะถ้ารู้ช่วยตอบที่นะครับ หรือแอ๊กมาที่เมล์ก็ได้นะครับ ที่ pat_za56hotmail.com นะครับ
  • DarK_DeviL
    Guest
  • 15 ธ.ค.2550,19:35น.
    2-----------5-6-6/8
    ก้อคือ ดีดสาย2 ช่อง 5 ตามด้วย 6 แล้วก้อตามด้วย 6กะ8 รวบอ่ะ 6กะ8 ดีดทีเดียวกัน ไม่เข้าใจถามต่อได้ครับ
  • โบโบ้
    Guest
  • 18 ธ.ค.2550,13:38น.
    ฟังเพลงนี้แล้วร้องไห้ไปกับเพลงนี้เชิญครับ
  • คนชอบขุด
    Guest
  • 20 ธ.ค.2550,21:05น.
    ขอ intro guitar 2 ชัดๆอีกทีคัฟเค้าแกะมาเหมือนมากๆจิงๆ ((ขอคอร์ดกีต้าร์))
  • Mo
    Guest
  • 27 ธ.ค.2550,10:35น.
    ไม่เห็นมีคัยเเกะเหมือนๆเลยเซงๆๆๆๆ
  • lovwrock
    Guest
  • 31 ธ.ค.2550,13:00น.
    กูไม่รู้เรื่อง
  • พงศ์ เด็กทารก
    Guest
  • 1 ม.ค.2551,21:26น.
    เวงเวง มีใคร ได้ถ้อน ไล่มั้งค้าบ ขอหน่อยยยยยยยยยย
  • อ่าม
    Guest
  • 4 ม.ค.2551,11:27น.
    ดีครับชอบ
  • เน็ทครับ
    Guest
  • 13 ม.ค.2551,10:10น.
    พี่ครับผมงงมากเลยครับผมดูตัวเลข Solo ไม่เป็นช่วยสอนผมนอยครับ พี่แบค์ครับ
    ไอ้ตัวเลข Solo แบบว่า 6s8 6p5 5h6 5/7 7/5/7 7------------------5 แบบนี้นะครับมันดูยังไง
    และ0หมายความว่าไรหรอครับ และที่มันสำกันแบบนี้ 8-8 ดูยังไงงงไปหมดแล้วครับช่วยดูให้นอย
    นะครับและบอกวิธีเกาด้วยนะครับมันดูและงงนะครับ
  • ][MITR][
    Guest
  • 13 ม.ค.2551,21:16น.
    8 -- 8 ก็ดีด แฟลต 8 2 ที 0 คือเส้นปล่าว ส่วนเครื่องหมาย s กับ p หาอ่านดูละกัน ผมก็ไม่มั่นใจ 5/7 คือ 5ลากไป7 ถ้าจำไม่ผิดน่ะ
  • เมษ์
    Guest
  • 14 ม.ค.2551,15:04น.
    ชอบมากๆๆๆๆๆๆๆๆๆๆๆๆๆๆๆๆๆๆ ซึ้งสุดๆๆ ((ขอคอร์ดกีต้าร์))
  • เด็กติดยา
    Guest
  • 15 ม.ค.2551,18:24น.
    tabมาฝากครับ ด.ช.ดุ๊ก
  • prince..
    Guest
  • 19 ม.ค.2551,10:47น.
    วิธีเล่นเพลงวังวนน่ะ ง่ายๆให้นู๋เข้าใจหน่อยดิพี่
  • ปุ
    Guest
  • 20 ม.ค.2551,10:28น.
    bankสุดยอดไปเลย
  • kklhfu,hyf,hygkykmkh;lhnglhltggtkiylujvglh
    Guest
  • 21 ม.ค.2551,19:11น.
  • สดจากไร่
    Guest
  • 22 ม.ค.2551,12:01น.
    ติดอยู่นัยวังวนที่ไร้ทางออกเพราะว่ารักคำเดียว.............
  • เด็กน่าน
    Guest
  • 27 ม.ค.2551,18:49น.
    ชอบมากค่ะเพราะมากๆๆๆ เยย
    พี่แบงค์สุดหล่อ
  • เด็กน่าน
    Guest
  • 27 ม.ค.2551,18:51น.
    รักพี่แบงค์มากเลย
    อยากเป็นแฟนพี่แบงค์จังได้ป่ะ......ฮิ..ฮิ
  • เคน
    Guest
  • 28 ม.ค.2551,13:18น.
    รักๆๆๆๆๆๆๆๆ
  • คนบ้า
    Guest
  • 29 ม.ค.2551,09:24น.
    ดีมากๆๆๆๆๆๆๆๆๆๆๆๆๆๆๆๆๆๆๆๆๆๆๆๆๆๆๆๆๆๆๆๆๆๆๆๆๆๆๆๆๆๆๆๆๆๆๆๆๆๆๆๆๆๆๆๆๆๆๆๆๆๆๆๆๆๆๆๆๆๆๆๆๆๆๆๆๆๆๆๆๆๆๆๆๆๆๆๆๆๆๆๆๆๆๆๆๆๆๆๆๆๆๆๆๆๆๆๆๆๆๆๆๆๆๆๆๆๆๆๆๆเลย ((ขอคอร์ดกีต้าร์))
  • คนบ้า
    Guest
  • 29 ม.ค.2551,09:24น.
    ดีมากๆๆๆๆๆๆๆๆๆๆๆๆๆๆๆๆๆๆๆๆๆๆๆๆๆๆๆๆๆๆๆๆๆๆๆๆๆๆๆๆๆๆๆๆๆๆๆๆๆๆๆๆๆๆๆๆๆๆๆๆๆๆๆๆๆๆๆๆๆๆๆๆๆๆๆๆๆๆๆๆๆๆๆๆๆๆๆๆๆๆๆๆๆๆๆๆๆๆๆๆๆๆๆๆๆๆๆๆๆๆๆๆๆๆๆๆๆๆๆๆๆเลย ((ขอคอร์ดกีต้าร์))
  • คนบ้า
    Guest
  • 29 ม.ค.2551,09:24น.
    ดีมากๆๆๆๆๆๆๆๆๆๆๆๆๆๆๆๆๆๆๆๆๆๆๆๆๆๆๆๆๆๆๆๆๆๆๆๆๆๆๆๆๆๆๆๆๆๆๆๆๆๆๆๆๆๆๆๆๆๆๆๆๆๆๆๆๆๆๆๆๆๆๆๆๆๆๆๆๆๆๆๆๆๆๆๆๆๆๆๆๆๆๆๆๆๆๆๆๆๆๆๆๆๆๆๆๆๆๆๆๆๆๆๆๆๆๆๆๆๆๆๆๆเลย ((ขอคอร์ดกีต้าร์))
  • คนบ้า
    Guest
  • 29 ม.ค.2551,09:24น.
    ดีมากๆๆๆๆๆๆๆๆๆๆๆๆๆๆๆๆๆๆๆๆๆๆๆๆๆๆๆๆๆๆๆๆๆๆๆๆๆๆๆๆๆๆๆๆๆๆๆๆๆๆๆๆๆๆๆๆๆๆๆๆๆๆๆๆๆๆๆๆๆๆๆๆๆๆๆๆๆๆๆๆๆๆๆๆๆๆๆๆๆๆๆๆๆๆๆๆๆๆๆๆๆๆๆๆๆๆๆๆๆๆๆๆๆๆๆๆๆๆๆๆๆเลย ((ขอคอร์ดกีต้าร์))
  • คนบ้า
    Guest
  • 29 ม.ค.2551,09:24น.
    ดีมากๆๆๆๆๆๆๆๆๆๆๆๆๆๆๆๆๆๆๆๆๆๆๆๆๆๆๆๆๆๆๆๆๆๆๆๆๆๆๆๆๆๆๆๆๆๆๆๆๆๆๆๆๆๆๆๆๆๆๆๆๆๆๆๆๆๆๆๆๆๆๆๆๆๆๆๆๆๆๆๆๆๆๆๆๆๆๆๆๆๆๆๆๆๆๆๆๆๆๆๆๆๆๆๆๆๆๆๆๆๆๆๆๆๆๆๆๆๆๆๆๆเลย ((ขอคอร์ดกีต้าร์))
  • สาวกเรทโทร
    Guest
  • 29 ม.ค.2551,20:19น.
    มีตอนมันเล่นมั้ย ครับ อยากรู้
  • แหล่มเลย
    Guest
  • 29 ม.ค.2551,20:44น.
    สอนผมไล่ สเกล ตรงท่อน ก่อนจบอินโทร ทีครับพี่ๆ มันยากมากมาย เอิ๊กๆ
  • พนิดา ป องขันธ์
    Guest
  • 30 ม.ค.2551,09:34น.
    ชอบเพลง นี้มาก ((ขอคอร์ดกีต้าร์))
  • ไอซ์
    Guest
  • 30 ม.ค.2551,17:44น.
    แกะเก่งจัง
    แน่นอน
  • โฑฯ
    Guest
  • 7 ก.พ.2551,12:11น.
    ..งง..จังเลย

  • มือใหม่อะ
    Guest
  • 11 ก.พ.2551,20:26น.
    ใส่เสกลยังไงอะ
  • ครีมโอ
    Guest
  • 14 ก.พ.2551,16:57น.
    ผมไม่รู้ว่าอันที่เหมือนของตัวจริงใครรู้ช่วยบอกหน่อยครับผมก้อเป็นอีกคนที่ชื่นชอบมากๆๆๆๆครับๆ(ขอบคุณที่ตอบผม
  • มือใหม่อะ
    Guest
  • 14 ก.พ.2551,18:45น.
    ตอนแรกอะ ใล่สเกลยังไงครับ
  • ด่กดร
    Guest
  • 14 ก.พ.2551,20:23น.
    คอร์ดเพลงนี้ยังไม่มีคะแนน (อย่าลืม ช่วยกันกดให้คะแนนคอร์ดเพลงที่คุณชื่นชอบ หรือตัดคะแนนคอร์ดที่คุณไม่ชอบ)

    Dm7 G C
    ... บ่อยที่ในหัวใจ เหมือนได้ยินเสียงเธอ
    Dm7 G C A
    และบ่อยที่นอนละเมอ ยังเผลอเรียกเธออย่างเดิม ซ้ำๆ
    Dm7 G C Am
    * แต่ก็รู้ว่าเธอนั้นไปไกลสุดฟ้า และก็รู้ว่าเธอ ไม่มีวันคืนย้อนมา
    Dm7 G Am A
    อยากจะทำตัว ทำหัวใจให้แข็งแรง เหมือนดังเดิมอีกครั้ง
    Dm7 G C Am
    จะต้องเป็นอย่างนี้ นานเท่าไหร่ โอกาสที่มันจะหาย มองไม่เห็นทาง
    Dm7 G Am
    ติดอยู่ในวังวนที่ไร้ทางออก...เพราะว่ารักคำเดียว...

    Solo : /Dm7/G/Am/Dm7/G/C


    ลองดูนะครับถูกไม่ถูกก้ออย่าว่ากันนะครับ
    ของผมไว้สำหรับคนเล่นคีย์มาตาฐานอ่าครับสูงกว่าC#mครึ่งเสียง
  • โจๆฦt/&amp;#9834;ณ&amp;#9834;&amp;#983
    Guest
  • 16 ก.พ.2551,20:27น.
    งงเกะได้ไงวะงง ((ขอคอร์ดกีต้าร์))
  • เด็กประเภทที่3
    Guest
  • 18 ก.พ.2551,11:40น.
    ชอบพี่แบงค์มากๆๆๆๆๆๆๆเลยนะฮะ
  • นายโดนทิ้ง
    Guest
  • 22 ก.พ.2551,11:01น.
    งงอ่ะแกะไม่เป็น
  • ..........
    Guest
  • 22 ก.พ.2551,23:21น.
    แล้วเพลงนี้เกาไงอะ
  • มาร์ค
    Guest
  • 23 ก.พ.2551,13:50น.
    เอา แบบง่ายๆอะ นะ
    ((ขอคอร์ดกีต้าร์))
  • เด็กก.ล.ว.
    Guest
  • 27 ก.พ.2551,12:37น.
    ชอบวงแคลชมากคับ
  • สยามชาโดว์
    Guest
  • 2 มี.ค.2551,22:53น.
    อยากได้ตัวโน๊ตใครมีขอมั่งนะคับ
  • ไร้เดียงสา
    Guest
  • 3 มี.ค.2551,14:23น.
    -ขอบคุณเน้อคับ- *-*
  • คนเล่น กีตาร์ไม่เป็น
    Guest
  • 4 มี.ค.2551,23:49น.
    เพราะมาก ชอบๆๆ
  • เด็กใหม่
    Guest
  • 6 มี.ค.2551,08:07น.
    สอนไล่สเกลให้หน่อยคราปปป
  • 555+
    Guest
  • 11 มี.ค.2551,20:02น.
    เพราะโคด
  • ตูน
    Guest
  • 13 มี.ค.2551,10:03น.
  • อาร์ม เอราวัณ
    Guest
  • 15 มี.ค.2551,12:48น.
    คนเสียแฟนคัยจะรู้บ้างว่ามันเจ็บแค่ไหนเราไม่ได้ผิดอะไรเลยเธอก้อเดินไปจากเราเองทุวันนี้ยังต้องนอนร้องไห้อยู่เลยแถบขาดจัยผมคิดว่าถ้าคัยเคยถูกทิ้งคงน่าจะเข้าจัยดีที่บอกหัยฟักเนี่ยไม่ได้อะไรน่ะแค่อยากระบายความรู้สึกที่มันเจ็บอยู่ข้างในออกมาถึงคัยๆเข้าจะบอกว่า*แค่ผู้หญิงคนเดียวไม่ตายก้อหาไหม่ได้ ลืม..ลืม มันไปซะ* คำ..คำ เนี่ยคัยๆก้อพูดได้ถ้าเข้าไม่เจอกับตัวเองเข้าคงไม่รู้หรอกว่ามันรู้สึกอย่างไง(คำว่า ลืม มันอาจจะพูดง่ายแต่เวลาทำจัยหัยลืมอ่ะมันอยากกว่าสี่งอื่นได้อีกคุณลองคิดดูน่ะว่าเมื่อก่อนเวลาเรามีปัญหาเราก้อยังสามารถที่จะโทรไประบายและมีคนที่รับฟังเราแต่ปัจจุบันไม่มีคัยหัยเราโทรหาโทรไปคุยและวันคืนดีๆอีกล่ะคุณคิดดูสิว่ามันจะลืมได้ง่ายๆหรอ เราหัยเขาทุกอย่างแต่สิ่งที่เขาหัยเรากลับคืนมามันมีแต่ความเจ็บปวดที่อยู่ในหัวจัยของเรา เรารักเขาแต่เขาไม่เคยรักเราเลยแม่แต่สักนิดผมคิดว่าถ้าเขารักเราได้ครึ่งหนึ่งของที่เรารักเขาผมคิดว่ามันคงจะเป็นรักที่หวานและคงจะสวยงามกว่านี้น่ะ สุดท้ายนี้ผมขอขอบคุณที่ท่านที่รับฟังการระบายอารมณ์ของผมขอบคุณอย่างสูงครับ
  • ....
    Guest
  • 20 มี.ค.2551,18:50น.
    เล่นได้เเล้วอ่ะ!!!!แต่ยังsoloไล่สเกลมะถูกมั่วไปหมดหะหะหะ
  • joe siam คนรักแคลช
    Guest
  • 23 มี.ค.2551,08:44น.
    ชอบเพลงนี้มากเลยคร๊าฟ

    ฟังแล้วมันเศร้าดี
  • นักกีต้า
    Guest
  • 23 มี.ค.2551,12:30น.
    Dm------------G---------------------Cmaj7
    บ่อยที่ในหัวใจ เหมือนได้ยินเสียงเธอ
    Dm G Cmaj7
    และบ่อยที่นอนละเมอ ยังเผลอเรีอกเธออย่างเดิมซ้ำๆ


    -----------คอส จริง เริ่ม แบบนี้ ครับ-----------
  • โจ้
    Guest
  • 24 มี.ค.2551,17:39น.
    คอร์ดเพลงนี้ยังไม่มีคะแนน (อย่าลืม ช่วยกันกดให้คะแนนคอร์ดเพลงที่คุณชื่นชอบ หรือตัดคะแนนคอร์ดที่คุณไม่ชอบ)


    2>---5--6/8--6--5--6--5-----------------------------------------------
    3>-------------------------------5--5-----7----6--5--4--5--4----------
    4>---------------------------------------7-------------------------5--5/7--7--6----

    2>-------------5--6/8------------------------------------------
    3>--4--6--7-------------5--5--5/2--4---------------------

    3>------------------------------------------------------2------------------------------
    4>--------------------------------------2--3-4--5------------------------------------
    5>----------------------2--3--4--5---------------------------------------------------
    6>-------2--3--4--5------------------------------------------------------------------

    2>-------1------------------------
    3>-----------2---------0---------Am
    4>----------------2---------------
  • แบงค์
    Guest
  • 25 มี.ค.2551,16:52น.
    ดีครับ....ผมขอการโซโลเริ่มต้นอย่างเดียว
    บอกแบบง่ายๆ นะครับ
    ขอบคุณครับ
  • 22 ก.ย.2557,01:35น.
    คอร์ดเพลงนี้ยังไม่มีคะแนน (อย่าลืม ช่วยกันกดให้คะแนนคอร์ดเพลงที่คุณชื่นชอบ หรือตัดคะแนนคอร์ดที่คุณไม่ชอบ)
    (เพลงนี้มีการปรับสายลงครึ่งเสียงจากเทป)
    
    Intro : Dm G Cmaj7 A
                Dm E7 Am A
    
    Dm              G                  C
        บ่อยที่ในหัวใจ เหมือนได้ยินเสียงเธอ
    Dm                 G
    และบ่อยที่นอนละเมอ
                               C
    ยังเผลอเรียกเธออย่างเดิมซ้ำๆ
    
                       Dm        G
    * แต่ก็รู้ว่าเธอนั้นไปไกลสุดฟ้า
                     C              Fmaj7
    และก็รู้ว่าเธอไม่มีวันคืน ย้อนมา
             Dm          E7
    อยากจะทำตัวทำหัวใจให้แข็งแรง
     Am                A
    เหมือนดังเดิม อีกครั้ง
                      Dm          G
    จะต้องเป็นอย่างนี้ นานเท่าไร
                      C           Fmaj7
    โอกาสที่มันจะหาย มองไม่เห็นทาง
                Dm         E7
    ติดอยู่ในวังวนที่ไร้ทางออก
             Am
    เพราะว่ารักคำเดียว
    
    (ดนตรี) Am AmM7 Am7 Fmaj7
                Dm G Cmaj7 Cmaj7
    
    (ซ้ำ *)
    
    (ดนตรี) Dm G C Fmaj7
                 Dm E7 Am A
    
                      Dm          G
    จะต้องเป็นอย่างนี้ นานเท่าไร
                      C           Fmaj7
    โอกาสที่มันจะหาย มองไม่เห็นทาง
                Dm         E7
    ติดอยู่ในวังวนที่ไร้ทางออก
             Am        A
    เพราะว่ารักคำเดียว
                     Dm          G
    จะต้องเป็นอย่างนี้ นานเท่าไร
                      C           Fmaj7
    โอกาสที่มันจะหาย มองไม่เห็นทาง
               Dm          E7
    ติดอยู่ในวังวนที่ไร้ทางออก
             Am
    เพราะว่ารักคำเดียว.
  • 22 ก.ย.2557,01:35น.
    คอร์ดเพลงนี้ยังไม่มีคะแนน (อย่าลืม ช่วยกันกดให้คะแนนคอร์ดเพลงที่คุณชื่นชอบ หรือตัดคะแนนคอร์ดที่คุณไม่ชอบ)
    Intro: /Dm/G/C/A/Dm/C/Am/
    
     Dm       D                      C/Em
     บ่อยที่ในหัวใจ เหมือนได้ยินเสียงเธอ
     Dm                G
     และบ่อยที่นอนละเมอ
                              C        Em/C
     ยังเผลอเรียกเธออย่างเดิมซ้ำๆ
    
    
                                 Dm       G
             *แต่ก็รู้ว่าเธอนั้นไปไกลสุดฟ้า
                                  G           F
               และก็รู้ว่าเธอไม่มีวันคืนย้อนมา
                         Dm          C
               อยากจะทำตัวทำหัวใจ
                              Am           A
               ให้แข็งแรงเหมือนดังเดิมอีกครั้ง
    
             
                           Dm        G
       **จะต้องเป็นอย่างนี้นานเท่าไร
                             C                 F
           โอกาสที่มันจะหายมองไม่เห็นทาง
                        Dm          E
           ติดอยู่ในวังวนที่ไร้ทางออก
                              Am
           เพราะคำว่ารักคำเดียว
    
    Solo: /Am/F/Dm/G/C
    
          (ซ้ำ *,**)
1

ขอเชิญร่วมแสดงความคิดเห็นครับ

คลิกที่รูป เพื่อแทรกรูปลงในข้อความ
  • Member :
    username
    password
  • Not a member :
    name
    email
Loading