คอร์ดเพลง ซมซาน - โลโซ

Version 15
แกะโดย รุตสามเสน
เมื่อ 5 พ.ค.2549,11:00น.
ดู 34749 ครั้ง
เอาไปเลย
เพลง ซมซาน
โดย โลโซ
Intro : G/Em/C /D (2 ครั้ง )
4|---------------6--------------------------6
5|-----------------8--8/3-3-3/4--6/8---6-------6
6|-4--4h6/8-----------------------------------6/8--8/4-4
G Bm C D
เกิดมาไม่เคยเจอ ใครเหมือนเธอ หลับฝันละเมอ ภาพเธอคอยหลอนทุกคืน
G Bm C D
หลับลงคราใด อยากนอนไม่ยอมตื่น ก็ทุกค่ำคืน เจอเธอที่ปลายฟ้าไกล

G Em C D
ก็ได้แต่เพ้อ แต่ฝันลมลม ก็หลงชื่นชม โดยเธอไม่รู้ตัว
G Em C D
เจอเธอทีไร จิตใจเต้นรัว ฉันกลัวฉันกลัว กลัวเธอไม่สนใจ

Em Bm C D
* อยากเดินเข้าไป บอกว่ารักเธอ เวลาที่เจอที่เธอส่งยิ้มมา
Bm Em C D G
เหมือนดั่งโลกนี้ สดใสขึ้นทันตา ในช่วงเวลาที่ต้องการใคร เข้าใจสักคน

Instru : G/Em/C/D (2 ครั้ง )
Solo
4|-------------6------------------------6-----------------------6-----6
5|----------------8-8/3-3/4---6/8----6---8---------6h8-----8---
6|--4--4h6/8---------------------------------------6h8--------------
----------------------------------------------------------------------------------------------------------------
2|-------------9--------------9--------------------9----------------9-11-9p7
3|----------------10--8h10----10/5-6--8/10----10-8--8-10--------------10-8-8/10
4|-6h8/10

Em Bm C D
อยากเดินเข้าไป บอกว่ารักเธอ เวลาที่เจอที่เธอส่งยิ้มมา
Em Bm C D
เหมือนดั่งโลกนี้ สดใสขึ้นทันตา ในช่วงเวลาที่ต้องการใคร

G Em C D
หากเธอมีใจ ก็บอกกันสักหน่อย อย่าให้ฉันคอย คอยเธออย่างนี้เลย
G Em C D
ให้คอยนานๆ มันซมซานรู้ไหมเอ่ย ยิ่งเธอทำเฉย ฉันเองจะบ้าตาย

( ซ้ำ * )

Ending : G/Em/C/D ( 2 ครั้ง)
4----------6--------------------------6-8-8/10^ครึ่งเสียง-8-6-5--------------------------6-8/10----
5------------6/8-8/3-3-4-4-6/8---------------------------------6-6--------------6-8-6--------------
6-4-6/8------------------------------------------------------------------6-6-4-6/8----------------------

1----------------11------------------------------------------------------------------------------------------
2--------9-11^----11^11-ขึ้นเเล้วลง-9---------------------------------------------------------------
3-8-10-------------------------------------10P8----8-----8H10-10P8--------------------------8
4----------------------------------------------------10---10-----------------10-8-6H8-6---8/10---
5------------------------------------------------------------------------------------------------8--------

1--------------8h9p8----------------8h9p8---------------8h9p8--------------8-/16-13p11-13
2--------8-9-----------9-8-----8-9-----------9-8----8-9-----------9-8----8-9-----------------------
3----10----------------------10---------------------10--------------------10---------------------------
4-11-------------------------------------------------------------------------------------------------------

2-13p11-9-11p9---------------------------------------------9h11p9----9
3---------------------8-10p8---------------------------8h10------------10
4-------------------------------8-10p8----------8h10-----------------------
5------------------------------------------8-8h11-------------------------------
คอร์ดเพลง ซมซาน

ความคิดเห็นเกี่ยวกับคอร์ดนี้

เวอร์ชั่นทั้งหมดของคอร์ดเพลงนี้

คอร์ดเพลง ซมซาน

16 | 0
โดย รุตสามเสน
เมื่อ 11 ปีที่แล้ว

คอร์ดเพลง ซมซาน

13 | 0
โดย top udomporn yuyen
เมื่อ 11 ปีที่แล้ว

คอร์ดเพลง ซมซาน

6 | 2
โดย Zull
เมื่อ 13 ปีที่แล้ว

คอร์ดเพลง ซมซาน

2 | 0
โดย มือกีตาร์ Zbelt เด็ก ญ.ส.
เมื่อ 11 ปีที่แล้ว

คอร์ดเพลง ซมซาน

1 | 0
โดย KING
เมื่อ 12 ปีที่แล้ว

คอร์ดเพลง ซมซาน

1 | 0
โดย มือกีตาร์ Zbelt เด็ก ญ.ส.
เมื่อ 11 ปีที่แล้ว

คอร์ดเพลง ซมซาน

0 | 0
โดย Person's Dark'queen
เมื่อ ปีที่แล้ว

คอร์ดเพลง ซมซาน

0 | 0
โดย Pudz Taylor
เมื่อ 2 ปีที่แล้ว

คอร์ดเพลง ซมซาน

0 | 0
โดย .....
เมื่อ 9 ปีที่แล้ว

คอร์ดเพลง ซมซาน

0 | 0
โดย นิรนาม
เมื่อ 9 ปีที่แล้ว

คอร์ดเพลง ซมซาน

0 | 0
โดย จาตุรันต์
เมื่อ 10 ปีที่แล้ว

คอร์ดเพลง ซมซาน

0 | 0
โดย Tallslaker
เมื่อ 10 ปีที่แล้ว

คอร์ดเพลง ซมซาน

0 | 0
โดย น้องเขียง
เมื่อ 10 ปีที่แล้ว

คอร์ดเพลง ซมซาน

0 | 0
โดย ไรว๊ะ!!!
เมื่อ 10 ปีที่แล้ว

คอร์ดเพลง ซมซาน

0 | 0
โดย lnwNoname
เมื่อ 10 ปีที่แล้ว

คอร์ดเพลง ซมซาน

0 | 0
โดย รุต สามเสน
เมื่อ 11 ปีที่แล้ว

คอร์ดเพลง ซมซาน

0 | 0
โดย yukjh
เมื่อ 11 ปีที่แล้ว

คอร์ดเพลง ซมซาน

0 | 0
โดย ยันต์
เมื่อ 11 ปีที่แล้ว

คอร์ดเพลง ซมซาน

0 | 0
โดย ยันต์
เมื่อ 11 ปีที่แล้ว

คอร์ดเพลง ซมซาน

0 | 1
โดย ติ้ด เด็กยะลา
เมื่อ 11 ปีที่แล้ว

คอร์ดเพลง ซมซาน

0 | 0
โดย เอ๋อเหรอ
เมื่อ 11 ปีที่แล้ว

คอร์ดเพลง ซมซาน

0 | 0
โดย ปังปอนด์
เมื่อ 12 ปีที่แล้ว

คอร์ดเพลง ซมซาน

0 | 0
โดย Paul
เมื่อ 13 ปีที่แล้ว

คอร์ดเพลง ซมซาน

0 | 0
โดย Loso
เมื่อ 13 ปีที่แล้ว

เนื้อเพลง ซมซาน - โลโซ

Intro : ( 2 ครั้ง )


เกิดมาไม่เคยเจอ ใครเหมือนเธอ หลับฝันละเมอ ภาพเธอคอยหลอนทุกคืน

หลับลงคราใด อยากนอนไม่ยอมตื่น ก็ทุกค่ำคืน เจอเธอที่ปลายฟ้าไกล


ก็ได้แต่เพ้อ แต่ฝันลมลม ก็หลงชื่นชม โดยเธอไม่รู้ตัว

เจอเธอทีไร จิตใจเต้นรัว ฉันกลัวฉันกลัว กลัวเธอไม่สนใจ


* อยากเดินเข้าไป บอกว่ารักเธอ เวลาที่เจอที่เธอส่งยิ้มมา

เหมือนดั่งโลกนี้ สดใสขึ้นทันตา ในช่วงเวลาที่ต้องการใคร เข้าใจสักคน

Instru : ( 2 ครั้ง )


อยากเดินเข้าไป บอกว่ารักเธอ เวลาที่เจอที่เธอส่งยิ้มมา

เหมือนดั่งโลกนี้ สดใสขึ้นทันตา ในช่วงเวลาที่ต้องการใคร


หากเธอมีใจ ก็บอกกันสักหน่อย อย่าให้ฉันคอย คอยเธออย่างนี้เลย

ให้คอยนานๆ มันซมซานรู้ไหมเอ่ย ยิ่งเธอทำเฉย ฉันเองจะบ้าตาย

( ซ้ำ * )

nding : ( 2 ครั้ง )

Cover เพลงซมซาน


ยังไม่มี Cover เพลงนี้

[ ช่วยกันแบ่งปันคลิปเพลงที่คุณเล่นเอง ]

ฟังเพลง ซมซาน

ซมซาน - โลโซ
เมื่อ 13 ปีที่แล้ว
ค้นพบคอร์ด 26 เวอร์ชั่น
ใจสั่งมา - โลโซ
เมื่อ 13 ปีที่แล้ว
ค้นพบคอร์ด 11 เวอร์ชั่น
เราและนาย - โลโซ (Loso)
เมื่อ 13 ปีที่แล้ว
ค้นพบคอร์ด 31 เวอร์ชั่น
แม่ - เสก โลโซ (Sek Loso)
เมื่อ 13 ปีที่แล้ว
ค้นพบคอร์ด 13 เวอร์ชั่น
แม้ว่า - เสก โลโซ (Sek Loso)
เมื่อ 12 ปีที่แล้ว
ค้นพบคอร์ด 12 เวอร์ชั่น
คืนจันทร์ - โลโซ (Loso)
เมื่อ 13 ปีที่แล้ว
ค้นพบคอร์ด 8 เวอร์ชั่น
ฝนตกที่หน้าต่าง - โลโซ (Loso)
เมื่อ 13 ปีที่แล้ว
ค้นพบคอร์ด 9 เวอร์ชั่น
อะไรก็ยอม - โลโซ (Loso)
เมื่อ 13 ปีที่แล้ว
ค้นพบคอร์ด 9 เวอร์ชั่น
เธอจะรู้บ้างไหม - โลโซ
เมื่อ 14 ปีที่แล้ว
ค้นพบคอร์ด 5 เวอร์ชั่น
14 อีกครั้ง - โลโซ
เมื่อ 11 ปีที่แล้ว
ค้นพบคอร์ด 30 เวอร์ชั่น
เจ็บหัวใจ - เสก โลโซ (Sek Loso)
เมื่อ 8 ปีที่แล้ว
ค้นพบคอร์ด 2 เวอร์ชั่น
ฉันหรือเธอ(ที่เปลี่ยนไป) - โลโซ
เมื่อ 13 ปีที่แล้ว
ค้นพบคอร์ด 6 เวอร์ชั่น
คนบ้า - โลโซ
เมื่อ 11 ปีที่แล้ว
ค้นพบคอร์ด 6 เวอร์ชั่น
รอยยิ้มนักสู้ - โลโซ (Loso)
เมื่อ 11 ปีที่แล้ว
ค้นพบคอร์ด 5 เวอร์ชั่น
นานเท่าไหร่ก็รอ - เสก โลโซ (Sek Loso)
เมื่อ 13 ปีที่แล้ว
ค้นพบคอร์ด 8 เวอร์ชั่น
อะไรก็ยอม โซโล่ - โลโซ
เมื่อ 11 ปีที่แล้ว
ค้นพบคอร์ด 9 เวอร์ชั่น
ไม่ยอมตัดใจ - เสก โลโซ (Sek Loso)
เมื่อ 8 ปีที่แล้ว
ค้นพบคอร์ด 10 เวอร์ชั่น
พรุ่งนี้ - โลโซ
เมื่อ 14 ปีที่แล้ว
ค้นพบคอร์ด 2 เวอร์ชั่น
เคยรักฉันบ้างไหม - โลโซ
เมื่อ 13 ปีที่แล้ว
ค้นพบคอร์ด 6 เวอร์ชั่น
(ฉันคิดฯ)ฐานะอะไร - เสก โลโซ (Sek Loso)
เมื่อ 6 ปีที่แล้ว
ยังไม่มีคอร์ด

คอร์ดยอดนิยม

83309 | 3/2

กลับคำสาหล่า - ไมค์ ภิรมย์พร

คอร์ดโดย ศราวุฒิ นาสงวน
เมื่อ 2 เดือนที่แล้ว
8809/1 | 0/0

Ver.2 กลับคำสาหล่า - ไมค์ ภิรมย์พร

คอร์ดโดย John W Panseela
เมื่อ เดือนที่แล้ว
5812 | 0/0

เจ็บละเนาะ - เพชร สหรัตน์ ft. เอ มหาหิงค์ - เพชร สหรัตน์ ft. เอ มหาหิงค์

คอร์ดโดย Ton Theonelove
เมื่อ 2 เดือนที่แล้ว
3195 | 0/0

วันหนึ่งฉันเดินเข้าป่า - แม็กซ์ เจนมานะ feat. หญิง พรปวีณ์ (Max)

คอร์ดโดย krit
เมื่อ เดือนที่แล้ว
2401 | 0/0

ฝาก - คิว

คอร์ดโดย POPPY
เมื่อ 2 เดือนที่แล้ว
2329 | 0/0

Ver.2 เจ็บละเนาะ - เพชร สหรัตน์ ft. เอ มหาหิงค์ - เพชร สหรัตน์ ft. เอ มหาหิงค์

คอร์ดโดย เค จีอุน
เมื่อ เดือนที่แล้ว
1488 | 0/0

Ver.2 บอกเลิกบ่ออก บอกฮักบ่ได้ - เบลล์ นิภาดา

คอร์ดโดย กฤษฎากรณ์ อ่อนตาแสง
เมื่อ เดือนที่แล้ว