Loading

เพลง กรงทอง

พาราด็อกซ์ (Paradox)

อัพโหลดคลิปเพลงนี้ที่คุณ ร้อง/เล่น ด้วยตัวคุณเอง ได้แล้ววันนี้
ระหว่างการทดสอบระบบหากพบข้อผิดพลาด กรุณาแจ้งที่นี่
กรงทอง Paradox

Intro: Am (4times)
Am G

Am G Am G
กรงทองที่งาม ประดับไว้ กลางหัวใจ
Am G Am G
เธอดึงฉันไป อยู่อย่างนั้น โดยง่ายดาย
Am G C
ในกรงของเธอ ถูกกักขัง

G Am F
* ไว้ในกรงทอง ปล่อยให้ฉันตาย ไม่ให้ฉันบิน
C G Am F
อยู่แต่ความรัก ถูกขังในใจเธอ แต่คงไม่นาน ก็คงต้องไป

Instru: Am G (2times)

Am G Am G
ความจริงฉันเอง อยากจะหนี ไปให้ไกล
Am G Am G
ทำตามที่ใจ ออกไปพบ ทางมากมาย
Am G C
มันทรมาน อาจถูกขัง

(ซ้ำ *)

C G Am F
อยู่แต่ความรัก เก็บไว้ในกรงทอง ปล่อยให้ฉันตาย ไม่ให้ฉันบิน
C G Am F
อยู่แต่ความรัก เดินเข้าไป คงไม่นาน ก็คงหนีไป

Instru: Am G F C

Am G F
ในใจเธอ คงต้องตาย ไร้เรี่ยวแรง

C G# C G# C
หากเธอช่วยปล่อย ใจให้ห่าง ห่างจากกันไปใช้เวลา
G# F G
ทำเรื่องอื่นที่มีค่า การจะทำให้เราต้องอยู่ติดกันฉันต้องทนได้อีกไม่นาน

D A Bm G
กรงของเธอ ปล่อยให้ฉันตาย ไม่ให้ฉันบิน
D A Bm G
อยู่แต่ความรัก ถูกขังในใจเธอ แต่คงไม่นาน ก็คงต้องไป
D A Bm G D
อยู่แต่ความรัก อยากจะหนี ออกไปพบ ออกไปใช้เวลาฉันบ้าง
A Bm G D
อยากจะค้น อยากจะหา ออกไปทำตามใจต้องการ
A Bm G D
อยากจะพัก อยากจะหนี ออกไปใช้เวลาฉันบ้าง
A Bm G
อยากจะค้น อยากจะหา ออกไปทำ
ดาวน์โหลด Full Song
กด *424243002286584
กด *424243002286584
ดาวน์โหลด Truetone
กด *424218002286584
กด *424218002286584
กด *424218002286584
ดาวน์โหลด Poly
กด *424214002286584
กด *424214002286584
กด *424214002286584
ดาวน์โหลด Mono
กด *424211002286584
กด *424211002286584
กด *424211002286584
* อัตราค่าบริการดาวน์โหลด Fullsong, Truetone, Poly, Mono : 35 บาท/เพลง
ส่งเพลงนี้ให้เพื่อน
วันที่โพสต์ : 28 ก.ย.2546,09:07น.
จำนวนผู้ชม : 134243 คน / แสดงความคิดเห็น : 45 ครั้ง
โพสต์โดย


จาก: RISHADAN PORT
Guest
เพลงแนะนำ
เพลงฮิต
เลือกแสดงเฉพาะ :

  • suba
    Guest
  • 26 พ.ย.2546,11:24น.
    เว็บเจ๋งมาก  ถูกใจ
  • บิน``
    Guest
  • 26 ธ.ค.2546,01:23น.
    ขอเเทปโซโล่หน่อยครับ..
  • F-16
    Guest
  • 15 ม.ค.2547,19:50น.
    ขอเเทปโซโล่หน่อยครับ..ด่วนครับ
  • !!!
    Guest
  • 20 ม.ค.2547,12:41น.
    ขอแทปsoloหน่อยครับ
  • แมน01
    Guest
  • 5 ก.พ.2547,18:39น.
    ขอแทบโซโล่ หน่อยสิครับ แกะ เองมะเป็นอ่ะ      
    ((ขอคอร์ดกีต้าร์))
  • NOOK
    Guest
  • 15 มี.ค.2547,15:54น.
    ถูกใจมากครับอยากได้แทปจัง         
    ((ขอคอร์ดกีต้าร์))
  • ิBright Scalar
    Guest
  • 28 มี.ค.2547,23:00น.
    อ่ะนี่เราแกะได้นิดเดียวเองถ้าแกะได้อีกจามาต่อให้เพราะมันฟังไม่รู้เรื่อง

    5---2---4----5-----7---------7---5-------
    6--------------------------5-------------3---
    ((อัพเดทคอร์ดกีต้าร์))
  • ..............
    Guest
  • 31 มี.ค.2547,20:51น.
    ขอเทปแบบเต็นด้วยครับ
  • ตัวแรง
    Guest
  • 1 เม.ย.2547,12:30น.
    +++
  • hell
    Guest
  • 26 เม.ย.2547,16:18น.
            
  • AzuJiro -๐-
    Guest
  • 17 มิ.ย.2547,11:48น.
     -๐- กูจะเอาTab                 
    ((ขอคอร์ดกีต้าร์))
  • Hui The Gunner
    Guest
  • 1 ก.ค.2547,05:30น.
    6-------------3 -----------------------3------------------------
    5-0-------------2--------0---------------2-----------0------------
    4----2 4 ---------0 --------2--4-----------0-------------------------
    3--------- 0---------0-------------0-----------0---------------5-4-0--
    2--------------------------------------------------0--------3--
    1---------------------------------------------------------3----

    นี่ intro ที่เกากีต้าร์ครับ

    6-------------3-------------------3-----------------------
    5-0--7-7--5----5-5-3-0-7-7--5-------------------------

    นี่เป็น ไลน์เบส ของเพลงนี้ครับ เล่นอย่างตลอด จน ท่อนฮุค จะเดินย้ำๆ ตามคอร์ด ธรรมดา
    ((อัพเดทคอร์ดกีต้าร์))
  • The May
    Guest
  • 2 ก.ค.2547,10:35น.
    พี่สุดยอดครับ
    ((อัพเดทแหล่งทดลองฟัง)) ((อัพเดทคอร์ดกีต้าร์))
  • The May
    Guest
  • 2 ก.ค.2547,10:35น.
    พี่สุดยอดครับ       
    ((อัพเดทแหล่งทดลองฟัง)) ((อัพเดทคอร์ดกีต้าร์))
  • ใครมีเป็นเพลงส่งมาให้ทีนะ
    Guest
  • 13 ก.ย.2547,22:18น.
    แล้วผมจะกดฟังยังไหงอะครับ TT~
    ใครมีเป็นเพลงส่งมาให้ทีนะ อยากฟังมากกกกกกกกกกกกกกกกกกกกกกกกกกกกกกกก
  • เด็กน้อย
    Guest
  • 7 ต.ค.2547,22:09น.
    เล่นแบบ เบส
    intro
    6-------------3-------------------3-----------------------
    5-0--7-7--5----5-5-3-0-7-7--5-----------------------
    Solo
    6-------------3 -----------------------3------------------------
    5-0-------------2--------0---------------2-----------0------------
    4----2 4 ---------0 --------2--4-----------0-------------------------
    3--------- 0---------0-------------0-----------0---------------5-4-0--
    2--------------------------------------------------0--------3--
    1---------------------------------------------------------3----
  • ปวกเปียก
    Guest
  • 2 พ.ย.2548,22:55น.
    เดี๊ยนชอบเพลงนี้ very very เลยฮ่า.. เป็นเพลงที่มีความหมาย very good!ๆๆๆๆๆ  มากมาก ฟังแล้วรู้สึก เซนซิทีฝ แบบ shill shill ! หน่ะ แหม!!! ช่างเป็น เพลงที่... โอ้ว..  เกินคำบรรยายเลยเนาะ 
    ((ขอคอร์ดกีต้าร์))
  • นน
    Guest
  • 17 ธ.ค.2548,15:26น.
    ไอตรง 0 7 55  32 00อะไรพวกเนี๊ยะคืออะไรหรอ  หมายความว่าไงอะ
  • นน
    Guest
  • 22 ธ.ค.2548,20:37น.
    ไอตรง solo ไมมันฟังขัดๆยังไงก็ไม่รู้อะ
  • ...
    Guest
  • 30 ม.ค.2549,13:11น.
              ๘ฮฯ๘ษ.โ
    ((ขอคอร์ดกีต้าร์))
  • พุต
    Guest
  • 6 ก.พ.2549,17:42น.
    เวปสุดยอดมากครับ เจ๋งโครต
  • 12 มี.ค.2549,15:17น.
    สุดยอดมากครับ...
  • เจ้าพ่อหนังX
    Guest
  • 21 เม.ย.2549,20:27น.
    เงียบปัก
  • อ๊อฟอิอิ
    Guest
  • 16 มิ.ย.2549,22:59น.
    เว็บนี้โดนใจมาก 
    ((ขอคอร์ดกีต้าร์))
  • อนุบาบทางเรียบ[เพชรบุรี] (นิคม)
    Guest
  • 11 ก.ค.2549,16:31น.
    ขอ into กีตาร์หน่อยคคร๊าบ เอาเจ้งๆๆเลยนะ
    ข อ บ คุ ณ ค ร๊า บ
    ((ขอคอร์ดกีต้าร์))
  • ไก่
    Guest
  • 12 ก.ค.2549,20:04น.
    6 -------------3-3-----------
    5 0-0-5-5-3------3-3-1-0
    นี่คือเบสนะครับ


  • bom
    Guest
  • 27 ก.ย.2549,20:46น.
    ง่าย
    ((ขอคอร์ดกีต้าร์))

  • Guest
  • 3 ต.ค.2549,20:05น.
    เราชอบเพลงนี้มากๆเลยงะชอบบบบบบบบบบบบบบบบบบบบบบบบบบบบมันโดนใจนะ 
    ((ขอคอร์ดกีต้าร์))
  • โจ
    Guest
  • 11 ต.ค.2549,21:06น.
    ชอบมักๆ เพลงนี้

ขอเชิญร่วมแสดงความคิดเห็นครับ

คลิกที่รูป เพื่อแทรกรูปลงในข้อความ
  • Member :
    username
    password
  • Not a member :
    name
    email