Loading

เพลง กอดใจไม่กอดคอ

กบ แท็กซี่ (Taxi)

อัพโหลดคลิปเพลงนี้ที่คุณ ร้อง/เล่น ด้วยตัวคุณเอง ได้แล้ววันนี้
ระหว่างการทดสอบระบบหากพบข้อผิดพลาด กรุณาแจ้งที่นี่
กอดใจไม่กอดคอ  กบ Taxi

เท่าที่คบกันมา ดูท่าจะยังไง ไม่คิดอะไรกันเลยใช่ไหม
แต่ที่ฉันมันรู้สึก มันต่างจากเพื่อนทั่วไป
ยิ่งฉันได้ใกล้ชิด ยิ่งคิดไปกันใหญ่


*ทุกครั้งใกล้เธอฉันหน้าแดง ขาแข้งมันพันกัน เอ้อีเย้เฮ้...
ได้แค่กอดคอคงไม่พอ ได้กอดคอ ไม่เคยได้กอดใจ

**ไม่อยากกอดคอแล้ว ไม่เห็นแนวเท่ากอดใจ
ลำบากเกินไปไหมถ้ารักกัน
เก็บอาการไว้ แอบรักเธอหมดหัวใจ
ไม่อยากเป็นเพื่อนแล้วเข้าใจไหม
อยากกอดหัวใจ ไม่กอดคอ

ไม่ได้เห็นแค่วันเดียว เคี้ยวข้าวไม่ลงคอ
ยิ่งท้อถ้าโทรไปไม่รับสาย
จะบอกว่ารักก็คิดหนัก ติดคอไม่กล้าพูดไป
ทำได้ก้แต่คิด อีกนิดคงบ้าตาย

*,**

solo


**

ไม่อยากกอดคอแล้ว ไม่เห็นแนวเท่ากอดใจ (ไม่เห็นแนว)
ลำบากเกินไปไหมถ้ารักกัน (ลำบากเกินไปไหม)
เก็บอาการไว้ แอบรักเธอหมดหัวใจ (แอบรักเธอหมดหัวใจ)

อยากกอดหัวใจ ไม่กอดคอ

นา.......นา......นา..
นา......นา......นา.

-----------------------------------------------------------------------

MV เพลงนี้ต้องออกมาน่ารักแน่ๆ ฟังจากเพลงแล้ว
ดาวน์โหลด Full Song
กด *424243085066584
กด *424243085066584
ดาวน์โหลด Truetone
กด *424218085066584
กด *424218085066584
กด *424218085066584
ดาวน์โหลด Poly
กด *424214085066584
กด *424214085066584
กด *424214085066584
ดาวน์โหลด Mono
กด *424211085066584
กด *424211085066584
กด *424211085066584
* อัตราค่าบริการดาวน์โหลด Fullsong, Truetone, Poly, Mono : 35 บาท/เพลง
ส่งเพลงนี้ให้เพื่อน
วันที่โพสต์ : 21 ม.ค.2550,15:14น. 222.123.118.219
จำนวนผู้ชม : 78104 คน / แสดงความคิดเห็น : 67 ครั้ง
โพสต์โดย


จาก: loveloveaon
เข้าร่วม: 8 ปีก่อน
เพลง: 11
โพสต์: 110
เพลงแนะนำ
เพลงฮิต
เลือกแสดงเฉพาะ :

  • คนซื่อ
    Guest
  • 21 ม.ค.2550,21:58น.
    อยากทราบว่าไปหาฟังเพลงใหม่ๆแบบนี้ได้จากที่ไหนครับ ผมจะขอบคุณงามๆเลยถ้าบอก ให้ไหว้ก็ยอม โปรดสละเวลาพิมพ์บอกผมสักนิดเถิดครับ
  • เกรียน
    Guest
  • 21 ม.ค.2550,23:43น.
    เพราะมากเลยคับพี่น้อง
  • ช่างคิด
    Guest
  • 22 ม.ค.2550,11:36น.
    ไม่มีคอร์ดเหรอครับ
  • NO_NAME
    Guest
  • 22 ม.ค.2550,12:57น.
    ขอคอร์ดหน่อยเด้ TAB ด้วย แต่ยังไม่เคยฟังเลยแฮะ Taxi ออกอัลบัมใหม่หรอเนี่ย
  • NO_NAME
    Guest
  • 22 ม.ค.2550,13:01น.
    เพลงใหม่เยอะแยะ หาอย่างง่าย แต่ช่วงนี้ไม่ค่อยหาฟังและ ทำแต่งาน เวลาซ้อมดนตรียังไม่ค่อยมีเล้ย ((ขอคอร์ดกีต้าร์))
  • ตอฮา
    Guest
  • 22 ม.ค.2550,13:38น.
    โหลดที่ไหนๆๆๆๆ


  • คนๆนึง
    Guest
  • 22 ม.ค.2550,19:04น.
    อยากรู้เจงๆว่าพวกที่เอาเพลงไหม่มาอะเอามาจากไหนกันบอกหน่อยจิอยากจะฟังเพลงไหม่ๆมั่ง
  • งุงิ
    Guest
  • 22 ม.ค.2550,19:06น.
    ขอเวบโหลดฟังเพลงไหม่มั่งจิอบกมั่งๆๆๆๆๆๆๆๆๆๆๆๆๆๆๆๆๆๆๆๆๆๆๆๆๆๆๆๆๆๆๆๆๆจาฟังเพลงไหม่ๆ
  • ..
    Guest
  • 22 ม.ค.2550,20:27น.
    โดนใจคนแอบรักเพื่อน
  • ..
    Guest
  • 22 ม.ค.2550,20:28น.
    อยากฟังเพลงใหม่ๆก็ เปิดวิทยุครับ ชัวร์สุด
  • วันใหม่
    Guest
  • 23 ม.ค.2550,08:17น.
  • -*-
    Guest
  • 23 ม.ค.2550,10:31น.
    ผมฟังจากตู้เย็นครับ
  • Ging
    Guest
  • 23 ม.ค.2550,15:38น.
    ฟังจากคลื่นseedสิ
  • ชอบพี่แท๊กซี่จ้า
    Guest
  • 23 ม.ค.2550,20:15น.
    Mv น่ารักอย่างที่ Loveloveaon บอกไว้แน่ๆอิอิ
    สุ้ๆค๊าฟพี่กบ
  • 24 ม.ค.2550,14:29น.

    Intro

    1//-----------------------------------------------------------
    2//-----------------------8--------------------------------------
    3//--5----7----7s9----------5----7s9----7----5----------5------
    4//--------------------------------------------------------7----------


    1//------------------------------------------------------------------------
    2//-----------------------8---------------------------------------------------
    3//--5----7----7s9-----------5----7s9----7--------9---9s10---9---7----9-----
    4//------------------------------------------------------------------------


    1//-----------------------------------------------------------
    2//-----------------------8---------------------------------------
    3//--5----7----7s9----------5----7s9----7----5------------5---5---
    4//--------------------------------------------------------7----------


    1//-10^^---10--8--7--8---------------------------------------------------------------------------
    2//-----------------------------10----8---10---10^^^----7---9--9s10--7--5--4--4s5----
    3//------------------------------------------------------------------------------------------------
    4//---------------------------------------------------------------------------------------------------


    *หมายเหตุ

    s คือ slide สาย เช่น 7s9 คือ ดีดช่อง7 แล้วslide ไปช่อง 9
    ^ คือ ดันสายให้เสียงสูงขึ้น ครึ่งเสียง
    ^^ คือ ดันสายให้เสียงสูงขึ้น หนึ่งเสียง
    ^^^ คือ ดันสายให้เสียงสูงขึ้น หนึ่งเสียงครึ่ง
    1//-- คือ สาย 1
    2//-- คือ สาย 2
    3//-- คือ สาย 3
    4//-- คือ สาย 4
    ตัวเลขอื่น คือ ช่องบนสายนั้น
    วิธีอ่าน Tab อ่านจากซ้ายไปขวา


    มือใหม่หัดแกะครับ ช่วยๆกันแก้เน้อ
  • tui
    Guest
  • 24 ม.ค.2550,22:17น.

    กอดใจไม่กอดคอ
    ศิลปิน : กบ แท็กซี่ (Taxi)
    กอดใจไม่กอดคอ กบ Taxi
    intro:C/G/Dm/F/C/G/Dm/G
    Am/Em/Dm/F/Dm/G/C

    แทป

    Intro

    1//-----------------------------------------------------------
    2//-----------------------8--------------------------------------
    3//--5----7----7s9----------5----7s9----7----5----------5------
    4//--------------------------------------------------------7----------


    1//------------------------------------------------------------------------
    2//-----------------------8---------------------------------------------------
    3//--5----7----7s9-----------5----7s9----7--------9---9s10---9---7----9-----
    4//------------------------------------------------------------------------


    1//-----------------------------------------------------------
    2//-----------------------8---------------------------------------
    3//--5----7----7s9----------5----7s9----7----5------------5---5---
    4//--------------------------------------------------------7----------


    1//-8/12----10--8--10----8--7--8--------------------------------------------------------------------2//---------------------------------------8/10---8---10---10/13----------------------------
    และก้อตามด้วย
    1---------------------------------------
    2-------------------------------------
    3--7---9--9s10--7--5--4--4s5-


    Am /G F C Dm G C
    เท่าที่คบกันมา ดูท่าจะยังไง ไม่คิดอะไรกันเลยใช่ไหม
    Am/G F C
    แต่ที่ฉันมันรู้สึก มันต่างจากเพื่อนทั่วไป
    Dm G F C
    ยิ่งฉันได้ใกล้ชิด ยิ่งคิดไปกันใหญ่

    Em Am Em Am
    *ทุกครั้งใกล้เธอฉันหน้าแดง ขาแข้งมันพันกัน เอ้อีเย้เฮ้...
    Em Am F G
    ได้แค่กอดคอคงไม่พอ ได้กอดคอ ไม่เคยได้กอดใจ

    C G Dm F
    **ไม่อยากกอดคอแล้ว ไม่เห็นแนวเท่ากอดใจ
    C G Dm/G
    ลำบากเกินไปไหมถ้ารักกัน
    C G Dm F
    เก็บอาการไว้ แอบรักเธอหมดหัวใจ
    Am Em F/E
    ไม่อยากเป็นเพื่อนแล้วเข้าใจไหม
    Dm G C /(E)
    อยากกอดหัวใจ ไม่กอดคอ

    Am /G F C
    ไม่ได้เห็นแค่วันเดียว เคี้ยวข้าวไม่ลงคอ
    Dm G C
    ยิ่งท้อถ้าโทรไปไม่รับสาย
    Am /G F C
    จะบอกว่ารักก็คิดหนัก ติดคอไม่กล้าพูดไป
    Dm G F C
    ทำได้ก้แต่คิด อีกนิดคงบ้าตาย

    *,**

    solo:Am/Em/(2times)

    E/Am/Dm/F/G
    .....................
    ท่อนนี้ฟังมะออกอะว่าร้องว่าไร

    **
    C# G# Ebm F#
    ไม่อยากกอดคอแล้ว ไม่เห็นแนวเท่ากอดใจ (ไม่เห็นแนว)
    C# G# Ebm/F#
    ลำบากเกินไปไหมถ้ารักกัน (ลำบากเกินไปไหม)
    C# G# Ebm/F# Bbm/Fm/F#
    เก็บอาการไว้ แอบรักเธอหมดหัวใจ (แอบรักเธอหมดหัวใจ)
    Ebm G# C#
    อยากกอดหัวใจ ไม่กอดคอ

    นา..นา...นา...

    แกะมาหั้ยแระงับแท็ปโซโล่ไม่ยากอะเพื่อนๆลองแกะเองนะขี้เกียจเขียนแท็ปแว้วส่วนขอดก้อน่าจะใกล้เคียง.. ไปแระงับบ๋ายบาย


  • tui
    Guest
  • 24 ม.ค.2550,22:21น.
    แก้เล็กน้อย บรรทัดมันโดดไปติดกัน
    1//-8/12----10--8--10----8--7--8--------------------------------------------------------------------2//------------------------------------------8/10---8---10---10/13----------------------------
    และก้อตามด้วย
    1---------------------------------------
    2-------------------------------------
    3--7---9--9s10--7--5--4--4s5-
  • tui
    Guest
  • 24 ม.ค.2550,22:25น.
    เหอะๆแก้แร้วก้อเหมือนเดิม เอาเป็นว่า2//คือมันต้องอยู่บรรทัดล่างอะนะเป็นเส้นสายที่2
  • tui
    Guest
  • 24 ม.ค.2550,22:29น.
    วงไหนหรือคัยยังไม่มีวงต้องการตั้งวงต้องการมือกีต้าร์ช่วยแอ๊ดมาคุยกานหน่อยงับอยากตั้งวงงะ
    แกะเพลงเร่นอยู่คนเดวชักเบื่อแระ คนอยากมีวง chip_setuphotmail.com
  • 082
    Guest
  • 25 ม.ค.2550,23:16น.
    คอร์ด ใช้ได้เลยครับ ขอบคุณมากครับ
  • เค
    Guest
  • 26 ม.ค.2550,22:09น.
    ขอบมาครับเพลงนี้ ((ขอคอร์ดกีต้าร์))
  • เจมส์ ก๊องแก้งแมน
    Guest
  • 28 ม.ค.2550,15:28น.
    ชอบมานานแล้ว
  • daijai
    Guest
  • 3 ก.พ.2550,15:07น.
    ชอบพี่พี่วงtaxiมานานแล้ว ดีใจจังด้ายฟังเพลงใหม่แล้ว..คิดถึงเพราะปีที่แล้วก็ม่ายด้ายออกอัลบั้มเลย อยากหั้ยพี่ๆมาเล่นงนฤดูหนาวที่ลพบุรีอีก มันส์ม๊ากมาก ((ขอคอร์ดกีต้าร์))
  • exit.
    Guest
  • 7 ก.พ.2550,09:09น.
    ขอคอร์ดกีต้าร์ด้วยครับ :1 Thanks ((ขอคอร์ดกีต้าร์))
  • ก้องดู่หัวนา
    Guest
  • 7 ก.พ.2550,15:44น.
    ถ้าอยากฟังเพลงนี้ก็ต้องไปที่ ไอที่คลับ . คอม นะจ้า
    จ้า
  • ชอบเว็ปนี้
    Guest
  • 8 ก.พ.2550,20:21น.
    ขอIntro
    ธรรมดาด้วยคับ
  • นัท
    Guest
  • 15 ก.พ.2550,21:45น.
    ดูอยางไงอ่ะ

ขอเชิญร่วมแสดงความคิดเห็นครับ

คลิกที่รูป เพื่อแทรกรูปลงในข้อความ
  • Member :
    username
    password
  • Not a member :
    name
    email