Loading

ŧ ѭ

Һ

ѾŴԻŧس ͧ/ µǤسͧ ѹ
ҧ÷ͺкҡͼԴҴ س駷
Print
Ӥ׹ѧմǧԴ
Һͧѧʴ
شǹͧͺҡҧ
ѹ״ԴʹԷҹ...........................
........

Һѧ˹
蹡ѭ
ǪԵԴ鹷
ʾ觨٧ ͧ
.................

* 㹤ç
ͺӢͧͧ
ǧӡӡ׹ķ
ö......äҧ

** 纨㹤͹
Ե¹¤
ç㨷͡
Ͷ.....ѧҤͧ

㹤ç
ͺӢͧͧ
ǧӡӡ׹ķ
ö......äҧ

纨㹤͹
Ե¹¤
ç㨷͡
Ͷ.....ѧҤͧ

Һѧ˹
ٺѭ͡͹Ե
ǪԵԴ鹷
鹷ҧش ͹鹡ѭ
http://www.musicatm.com/thai/ŧ-ѭ-Һ-193.html
ǹŴ Poly
*424214037026584
*424214037026584
*424214037026584
ǹŴ Mono
*424211037026584
*424211037026584
*424211037026584
* ѵҤҺԡôǹŴ Fullsong, Truetone, Poly, Mono : 35 ҷ/ŧ
ŧ͹
ѹʵ : 11 ..2546,09:33.
ӹǹ : 223420 / ʴԴ : 79
ʵ


ҡ: Noo_Mai
Guest
ŧй
ŧԵ
  • up
    1.
    ʵ (Stamp)
    ѧŧ
  • up
    2.
    ͡ (Cocktail)
    ѧŧ
  • up
    3.
    Ըҹ (The Voice)
    ѧŧ
  • up
    4.
    ʹ (Bodyslam Feat. Labanoon)
    ѧŧ
  • up
    5.
    Ż
    ѧŧ
͡ʴ੾ :


  • Guest
  • 20 ..2547,13:41.
    ǹѺ蹷ç¹͵ҹʾԴ 
    ((յ))
  • NAWKAP
    Guest
  • 24 ..2547,22:26.
    ¤Ѻ
    ((յ))
  • lek
    Guest
  • 27 ..2547,15:12.
    դдҡѺ
    ((յ))
  • su
    Guest
  • 3 ..2547,11:19.
    Ѻͺس  
    ((յ))
  • Թ˹ѧŧ
    Guest
  • 31 ..2547,21:00.
    дҡ¹ФѺ ͺسҡѺ
  • noom
    Guest
  • 1 ..2547,12:08.
    ͺҡ                     :
  • ҧ
    Guest
  • 25 ..2547,12:47.
    ҡѧ ź "carabao inter". 
  • ҧ
    Guest
  • 7 ..2547,11:54.

    ((յ))
  • miti
    Guest
  • 14 ..2547,04:37.
    ,ҧŧ
  • kong
    Guest
  • 14 ..2547,14:00.
     paradox !!!! 
  • X
    Guest
  • 1 ..2547,00:15.
    ҡ
    ((յ))
  • monixe
    Guest
  • 1 ..2547,00:57.

    Dmsus2 Bb#4
    Ӥ׹ѧմǧԴ
    Gm6 Dmsus2
    Һͧѧʴ
    Gm
    شǹͧͺҡҧ
    Bb A7sus4 A7 F Bb A7
    ѹ״ԴʹԷҹ...........................
    Dm
    ........


    Dmsus2 Bb#4
    Һѧ˹
    Gm6 Dmsus2
    ѭ
    Gm
    ǪԵԴ鹷
    Bb7 A7 Dm
    ʾ觨٧ ͧ

    Solo: Dm C Bb A7 (2 )
    Dm C Bb C F
    .................

    F
    * 㹤ç
    Bb Gm
    ͺӢͧͧ
    C
    ǧӡӡ׹ķ
    A7sus4 A7 Dm C Bb C
    ö......äҧ

    F Bb
    ** 纨㹤͹
    Gm
    Ե¹¤
    C
    ç㨷͡
    A7sus4 Dm C Bb C
    Ͷ.....ѧҤͧ
    Solo : Dm Bb Gm Dm (2 ͺ)
    Dm Bb Gm A7 Dm C Bb C
    *,**
    Solo : Dmsus2 Bb#4 Gm6 Dmsus2

    Dmsus2 Bb#4
    Һѧ˹
    Gm6 Dmsus2
    ٺѭ͡͹Ե
    Gm
    ǪԵԴ鹷
    Bb A7 Dm
    鹷ҧش ͹ѭ
    ((Ѿഷյ))

  • Guest
  • 9 ..2547,17:31.
    ͤʹѹ蹧˹
    ((Ѿഷ觷ͧѧ)) ((Ѿഷյ)) ((յ))
  • Թ § µҡ˧
    Guest
  • 16 ..2547,13:48.
    ÷Ẻ֡ҡ˹  Ẻѹ¡ҹ   Ѻ 
    ((Ѿഷ觷ͧѧ)) ((Ѿഷյ)) ((յ))
  • Aum ѧյǡҺ
    Guest
  • 19 ..2547,14:25.
    ǡسͧçҧ˹ҴٹФѺẺͧ蹵ҡ  Dm sus 2
    Dm Ҿǡسҡ͹ͧͧͧѺ
  • TAKAHASHI
    Guest
  • 19 ..2547,19:40.
    §ŧѺ 
  • ѡ
    Guest
  • 24 ..2547,09:40.
    ҡTAB solo ҧѺ 
  • X
    Guest
  • 27 ..2547,00:21.
    ҡTAB ǹҡ  
    ((յ))
  • ҡ. ʴ
    Guest
  • 6 ..2549,22:13.
    ҹ ԡ    
  • M
    Guest
  • 7 ..2549,09:19.
    ¤Ѻ.....ѧ
    պҧ...觡ѹٴ...

  • Guest
  • 7 ..2549,22:27.
    Ӥ׹ѧչͧҧ տѧʴ    ()
  • ton
    Guest
  • 24 ..2549,23:14.
    ŧͧ蹤㹹ФѺѹ͹ҡǧҡ 
  • ..........
    Guest
  • 3 ..2549,22:44.
    ҡŧ˹ǻҹк˹¹  
    ((յ))
  • ⤡⾸
    Guest
  • 9 ..2549,06:11.
    Һʹǧ㨾ǡ ѡҺ  ͵͹ SOLO    
    ((յ))
  • ҩ鹺
    Guest
  • 19 ..2549,23:43.
    Intro

    1--------------0----------------------0-------------------------0-------------------------0-----------
    2--------6----------6----------6----------6------------6------------6------------6------------6----
    3-----7-----7---7-----7----7----7----7----7------7-----7-----7-----7-----7-----7-----7-----7-
    4--0----------------------0-----------------------8-------------------------8-------------------------
    5--------------------------------------------------------------------------------------------------------
    6--------------------------------------------------------------------------------------------------------

    1--------------0----------------------0-------------------------0-------------------------0-----------
    2--------6----------6----------6----------6------------6------------6------------6------------6----
    3-----7-----7---7-----7----7----7----7----7------7-----7-----7-----7-----7-----7-----7-----7-
    4--5----------------------5-----------------------0-------------------------0-------------------------
    5--------------------------------------------------------------------------------------------------------
    6--------------------------------------------------------------------------------------------------------

    1--------------0----------------------0-------------------------0-------------------------0-----------
    2--------6----------6----------6----------6------------6------------6------------6------------6----
    3-----7-----7---7-----7----7----7----7----7------7-----7-----7-----7-----7-----7-----7-----7-
    4--8----------------------8-----------------------5-------------------------5-------------------------
    5--------------------------------------------------------------------------------------------------------
    6--------------------------------------------------------------------------------------------------------

    1--------------0----------------------0----------------------------------------------------------------
    2--------6----------6----------6----------6-----------------------------------------------------------
    3-----7-----7---7-----7----7----7----7--------------------------------------------------------------
    4--0----------------------0-----------------------------------------------------------------------------
    5--------------------------------------------------------------------------------------------------------
    6--------------------------------------------------------------------------------------------------------

    ǵͧ

  • best
    Guest
  • 16 ..2549,15:36.
        
  • شʹ͡յдѺš1Т
    Guest
  • 1 ..2549,15:42.
              8                                 tab              ôͧ
    觨ԧ¹觡ٻ

  • Guest
  • 9 ..2549,09:54.
    ŧҡ 
    ((յ))

  • Guest
  • 3 ..2550,21:08.
    ҡ͹ solo ҡպ͡ ((յ))
  • բ
    Guest
  • 9 ..2550,14:48.
    ҡ᷹͹SoloФѺ
    ҡҡԧ

ԭʴԴ繤Ѻ

ԡٻ áٻŧ㹢ͤ
  • Member :
    username
    password
  • Not a member :
    name
    email