Loading

เพลง ขอเช็ดน้ำตา

แคลช (Clash)

อัพโหลดคลิปเพลงนี้ที่คุณ ร้อง/เล่น ด้วยตัวคุณเอง ได้แล้ววันนี้
ระหว่างการทดสอบระบบหากพบข้อผิดพลาด กรุณาแจ้งที่นี่

Artist : แคลช (Clash)


B7sus4 Em7 Dsus2 G
เช็ดน้ำตา แล้วมองกันได้ไหม ฉันเป็นใคร เธอลืมไปแล้วหรือ
B7sus4 Em7 A7 Em7
ฉันคนเดิม ที่ยังไงก็รักๆเธอ แม้ว่าเธอ เคยทอดทิ้งฉันไป

B7sus4 Em7 Dsus2 G
ถึงเวลา เขาทิ้งเธอในวันนี้ รู้ซึ้งดี ว่ามันเจ็บแค่ไหน
B7sus4 Em7 A7 Em7
ถ้าไม่รังเกียจ อยากโอบเธอมาซบตรงไหล่ เชื่อใจ ไว้ใจกันสักครั้ง

B7 Em7 Am7 Em7
* ไม่ได้มาเพื่อถือโอกาส ในเวลาที่เธออ่อนแอ
B7 Em7 Am7 B
แต่จะคอยมาช่วยดูแล ไม่ได้มาเพื่อแทนใคร
C D G Am D G G7
** ก็ฉันรู้ ว่าฉันแทนเขาไม่ได้ และฉันรู้ ว่าใจเธอมีแต่เขา
C D G Em Am D G
แต่ฉันขอ ขอแค่เช็ดน้ำตาเธอเบาๆ ในฐานะคนรักเก่าที่คุ้นเคย

B7sus4 Em7 Dsus2 G
ไม่เป็นไร ไม่ขอให้เธอกลับคืน ฉันรู้ตัว ว่าควรอยู่ที่ไหน
B7sus4 Em7 A7 Em7
ถึงแม้รักเธอ แต่ไม่เคยคิดฝืนใจใคร แค่ให้เธอ ไม่เสียใจไปกว่านี้

(ซ้ำ * , **)

(ซ้ำ **)

C D G Em Am D G
แต่ฉันขอ ขอแค่เช็ดน้ำตาเธอเบาๆ ในฐานะคนรักเก่าที่คุ้นเคย
ส่งเพลงนี้ให้เพื่อน
วันที่โพสต์ : 13 มี.ค.2546,15:42น.
จำนวนผู้ชม : 204810 คน / แสดงความคิดเห็น : 84 ครั้ง
โพสต์โดย


จาก: เว็บมาสซาเตอร์
เข้าร่วม: 9 ปีก่อน
เพลง: 0
โพสต์: 217
เพลงแนะนำ
เพลงฮิต
เลือกแสดงเฉพาะ :

  • bbbbbbb
    Guest
  • 9 ธ.ค.2556,11:04น. 110.49.219.64
    ไม่เห็นมีรีดเลย
  • unknow
    Guest
  • 14 มี.ค.2546,16:15น.
    พี่ WEBMASTER ไม่มี Intro เหรอคับ Solo กับ Outtro หล่ะหายไปไหน
  • unknow
    Guest
  • 14 มี.ค.2546,19:21น.
    Artist : แคลช (Clash)
    

    Instro :: /Em7 Csus2/Am7 Bm7/(2times)
    /Em7/

    B7sus4 Em7 Dsus2 G
    เช็ดน้ำตา แล้วมองกันได้ไหม ฉันเป็นใคร เธอลืมไปแล้วหรือ
    B7sus4 Em7 A7 Em7
    ฉันคนเดิม ที่ยังไงก็รักๆเธอ แม้ว่าเธอ เคยทอดทิ้งฉันไป

    B7sus4 Em7 Dsus2 G
    ถึงเวลา เขาทิ้งเธอในวันนี้ รู้ซึ้งดี ว่ามันเจ็บแค่ไหน
    B7sus4 Em7 A7 Em7
    ถ้าไม่รังเกียจ อยากโอบเธอมาซบตรงไหล่ เชื่อใจ ไว้ใจกันสักครั้ง

    B7 Em7 Am7 Em7
    * ไม่ได้มาเพื่อถือโอกาส ในเวลาที่เธออ่อนแอ
    B7 Em7 Am7 B
    แต่จะคอยมาช่วยดูแล ไม่ได้มาเพื่อแทนใคร
    C D G Am D G G7
    ** ก็ฉันรู้ ว่าฉันแทนเขาไม่ได้ และฉันรู้ ว่าใจเธอมีแต่เขา
    C D G Em Am D G
    แต่ฉันขอ ขอแค่เช็ดน้ำตาเธอเบาๆ ในฐานะคนรักเก่าที่คุ้นเคย

    Solo :: /Em7 Csus2/Am7/ Bm7/Em7/

    B7sus4 Em7 Dsus2 G
    ไม่เป็นไร ไม่ขอให้เธอกลับคืน ฉันรู้ตัว ว่าควรอยู่ที่ไหน
    B7sus4 Em7 A7 Em7
    ถึงแม้รักเธอ แต่ไม่เคยคิดฝืนใจใคร แค่ให้เธอ ไม่เสียใจไปกว่านี้

    (ซ้ำ * , **)

    Solo :: /Em7/Csus2/A/Em7/(2times)
    /Em7/Csus2/A/B

    (ซ้ำ **)

    C D G Em Am D G
    แต่ฉันขอ ขอแค่เช็ดน้ำตาเธอเบาๆ ในฐานะคนรักเก่าที่คุ้นเคย
  • บัณฑิต
    Guest
  • 24 เม.ย.2546,10:06น.
    WEBMASTER ครับ เพลงนี้มีให้ดาวน์โหลดหรือป่าวครับ  ถ้ามีบอกผมทีครับ
  • j j
    Guest
  • 15 พ.ค.2546,00:13น.
    good mate     
  • unknow
    Guest
  • 24 พ.ค.2546,15:13น.
    อยากฟังขอแนะนำให้ซื้อเทปนะครับ
    
    เพราะทุกเพลงจริงๆครับ
  • ...
    Guest
  • 31 ก.ค.2546,20:33น.
     อื่อ พูดไม่ได้
  • TOPTEN
    Guest
  • 19 ต.ค.2546,19:56น.
    เหอๆๆๆๆๆๆๆๆๆ
  • บอย
    Guest
  • 30 ต.ค.2546,02:24น.
    มันดีนะ เพลงนี้  
  • xxx
    Guest
  • 9 ม.ค.2547,19:15น.
     งง
  • pid
    Guest
  • 22 ก.พ.2547,18:26น.
    ขอคอร์ด รีด ด้วยคับ (ได้โปรด)
  • Earth lotee
    Guest
  • 4 มี.ค.2547,19:24น.
    ขอtabหน่อยฮะส่งมาให้ทีขอบคุนมากๆเลย 
  • กอล์ฟ
    Guest
  • 6 มี.ค.2547,22:10น.
    อยากดายท่อมโซโล่
  • superx
    Guest
  • 14 มี.ค.2547,23:59น.
    อยากได้ tab ท่อน intro,outtro,solo อ่ะครับเอามาให้ดูหน่อยครับ
  • P
    Guest
  • 23 เม.ย.2547,19:53น.
    intro
    -------------------------------------------------------------------------------------------------------
    ----------------------------------------------------------------------------------------------0-3----
    ---------6s9h7--------------------------6s9h7-------------------------------------0------------
    ------5-----------9-7-5-7-5-7-9----5------------9-7-5-7-4-5-2s4-----2s4----------------
    ------------------------------------------------------------------------------------------------------
    ----0---------------------------------0--------------------------------------0----------------------
    ((อัพเดทคอร์ดกีต้าร์)) ((ขอคอร์ดกีต้าร์))
  • P
    Guest
  • 2 พ.ค.2547,21:05น.
    ช่ายป่าวครับลองดูๆกันนะ
  • Ryu_skywave
    Guest
  • 2 พ.ค.2547,21:59น.
    อ่ะจัดให้.......  สงสัยตรงไหนถามนะคับ
    Intro...
    สาย2 ------------------------------------------------------------------------------
    สาย3 --------7/9/7--------------------------------------------------------------
    สาย4 -----7----------7/9/7--5--5/7----5--5/7---7/9----------------------
    สาย5 -------------------------------------------------------------------------------
    สาย6 --0---------------------------------------------------------------------------

    สาย2 ------------------------------------------------------------------------0--3--
    สาย3 --------7/9/7-----------------------------------------------------0--------
    สาย4 -----7----------7/9/7---5---5/7---5---4---2/4---2---2/4-----------
    สาย5 -------------------------------------------------------------------------------
    สาย6 --0----------------------------------------------------------------------------

    Solo....ตอนแรกยังไม่ต้องใส่เอฟเฟคนะคับ

    สาย4 --5-----------5--5----------5/7--7--5--7--7--7/9--5--4H5P4------
    สาย5 ----3--3/4--------3--3/4--------------------------------------------------

    เอาเลยใส่เอฟเฟคเลยจ้า...
    สาย3 --/12----------------12--12----------------12/14--14--12--14--14--14/16--12--
    สาย4 -------10--10/11------------10--10/11-------------------------------------------------

    สาย3 --11H12p11H12/4-----11H12P11H12/4-----------------------------------------

    สาย2 --/20----------------20--20---------------20/22--22-------------------------------------
    สาย3 --------17--17/18-----------17--17/18---------------------------------------------------

    สาย2 --20--22--20-22--23ููุ^24--23--22-23--22H23P22--20--22--19--20--17-------

    ผิดถูกยังไงเดี๋ยวผมจะลองเล่นที่ลงให้อีกครั้งแล้วกัน จะได้มาแก้ให้คับ
    ((อัพเดทคอร์ดกีต้าร์))
  • รัน
    Guest
  • 4 พ.ค.2547,19:51น.
    สาย1 -----------------------------------------------------------------
    สาย2 -----------------------------------------------------------------
    สาย3 -----------------------------------------------------------------
    สาย4 -------6/8/6---------------------------6/8/6----------------------
    สาย5 ---4----------6/8/6--6/4/6--6/8---4---------6/8/6----6/4/6--6/3/4--2/4/2--
    สาย6 -----------------------------------------------------------------
    ((อัพเดทคอร์ดกีต้าร์))
  • Gu.Peet
    Guest
  • 10 พ.ค.2547,10:16น.
    ที่ถูกจริงๆนะครับ(ไปขอมาจากแฮกเลย)
    สาย1------------------------------------------------------------------------------------------------|
    สาย2------------------------------------------------------------------------------------------------|
    สาย3-------7h9/7------------------------------------7h9/7------------------------------------|
    สาย4-----------------7h9/7--5--7--5--7--9------------------7h9/7--5--7--4--5--4--2---|
    สาย5---7-------------------------------------------7----------------------------------------------|
    สาย6------------------------------------------------------------------------------------------------|
    ส่วนท่อนกลางของคุณRyuก้อใช้ได้แล้วครับ
  • Gu.Peet
    Guest
  • 10 พ.ค.2547,10:21น.
    ถ้าเกากีต้าอีกตัวไปด้วยจะเพราะมาก
    เวลาเกาใช้คอร์ดEm/C/Am/Bm/2รอบแล้วจบด้วยEm
    วิธีเกาก้อไล่นิ้วไปตั้งแต่เส้น4/3/2/3เป็น1จังหวะถึงเปลี่ยนคอร์ด
  • บิ๊ก
    Guest
  • 2 มิ.ย.2547,11:44น.
    ของผมเป็นของอัลบั้มซาวครีมน้ะครับ
    intro
    4)-----7/9/7--7/9/7--5-7---5-7--7/9--------7/9/7--7/9/7--5-7--4-5---2/4--2-----
    5)-7--7/9/7--7/9/7--5-7---5-7--7/9----7--7/9/7--7/9/7--5-7--4-5----2/4- 2-----

    solo
    1)----12------15------------------------------------2-5--2h3p2----------------------------7------
    2)--------12-------15--12-10--8-10------4h5------------------3/12-12-12-12----5---------
    3)---------------------------------------------------------------------------------------------------------
    4)---------------------------------------------------------------------------------------------------------
    5)-7------------------------------------------------------------------------------------------------------

    1)----5--------------------------------------------0------------------------------------------------------
    2)-0----5-0-3/5--5---------------------------0---------0------------0-----------0-----------0------
    3)----------------------2p0-2p0------------0---------0------------0-----------0-----------0--------
    4)-----------------------------------0-0h2-------------------2/4---------4/5--------5/7-------7/9
    5)----------------------------------------------------0----------------------------------------------------

    1)----------------5------8/5--- 0-------12------
    2)----------7h8---8-7-------0------10----------

    1)-----2p0----3p0----5p0-----7p0----8-7----5/7-7-7-7--5-3-3------
    2)--0--------0--------0--------0--------0----------7/8-8-8-8--7-5-5------

    2)----------------------------------------------------------5-7-----------------------------------------
    3)--------------------------------4-5---5p4----4-5-7--------8---8--9--9/11---------------------
    4)------------0-2-5-7----5/7---------------7---------------------9-11-11/13-------------------
    5)-----1h2---------------------------------------------------------------------------------------------
    6)--3---------------------------------------------------------------------------------------------------

    2)---8-8p7p5-------------------------
    3)----------------7-5--------------------
  • เด็กมาใหม่
    Guest
  • 24 มิ.ย.2547,12:04น.
    ตัวภาษาอังกฤษคืออะไรคะ   
  • คนรักแคลช
    Guest
  • 2 ก.ค.2547,14:02น.
    เพลงเลิกงอน
    ((ขอคอร์ดกีต้าร์))
  • บิ๊ก
    Guest
  • 4 ก.ค.2547,06:40น.
    ขอเช็ดน้ำตา
    แครช(ซาวครีม)
    แก้ไหม่ครับ
    intro
    4)-----7/9/7--7/9/7--5-7---5-7--7/9--------7/9/7--7/9/7--5-7--4-5---2/4--2-----
    5)-7--7/9/7--7/9/7--5-7---5-7--7/9----7--7/9/7--7/9/7--5-7--4-5----2/4- 2-----

    solo
    1)----12------15------------------------------------2-5--2h3p2----------------------------7------
    2)--------12-------15--12-10--8-10------4h5------------------4/12-12-12-12----5---------
    3)---------------------------------------------------------------------------------------------------------
    4)---------------------------------------------------------------------------------------------------------
    5)-7------------------------------------------------------------------------------------------------------

    1)----5--------------------------------------------0------------------------------------------------------
    2)-0----5-0-3/5--5---------------------------0---------0------------0-----------0-----------0------
    3)----------------------2p0-2p0------------0---------0------------0-----------0-----------0--------
    4)-----------------------------------0-0h2-------------------2/4---------4/5--------5/7-------7/9
    5)----------------------------------------------------0----------------------------------------------------

    1)----------------5------8/5--- 0-------12------
    2)----------7h8---8-7-------0------10----------

    1)-----2p0----3p0----5p0-----7p0----8-7----5/7-7-7-7--5-3-3------
    2)--0--------0--------0--------0--------0----------7/8-8-8-8--7-5-5------

    2)----------------------------------------------------------5-7-----------------------------------------
    3)--------------------------------4-5---5p4----4-5-7--------8---8--9--9/11---------------------
    4)------------0-2-5-7----5/7---------------7---------------------9-11-11/13-------------------
    5)-----1h2---------------------------------------------------------------------------------------------
    6)--3---------------------------------------------------------------------------------------------------

    2)---8-8p7-----------------------------
    3)-------------9---7-5--------------------
  • ~ . ! i ! . LEem RecORDs . ! i ! . ~
    Guest
  • 25 ก.ค.2547,02:58น.
    6s9h7  <<<<< สงสัยนิดหน่อยคับ  ตัว s คืออะไรเหรอคับ
    เคยเห็นแต่ h - hammer on กะ p - pull off ง่ะคับ

    แล้ว ตัว s เรียกว่าอะไร ต้องทำยังไง บอกทีคับ อยากเป็น ๆ ๆ
  • ลูกเจี๊ยบ
    Guest
  • 31 ก.ค.2547,01:32น.
    ซาวครีมมันคือไรเหรอครับ บอกหน่อยครับ!!  
  • นิรนาม
    Guest
  • 18 ส.ค.2547,18:35น.
    ขอคอร์ง่ายๆๆๆๆๆๆๆๆๆๆๆๆๆๆๆๆๆๆๆๆๆๆ 
  • ILJMNN;
    Guest
  • 24 ส.ค.2547,20:08น.
    KM,
    ((อัพเดทแหล่งทดลองฟัง)) ((อัพเดทคอร์ดกีต้าร์)) ((ขอคอร์ดกีต้าร์))
  • กะทิหน้าแมว
    Guest
  • 17 ก.ย.2547,09:06น.
    5555555 งงซิปหายเลย ฆวยเอ้ย ของเช็ดนำอสูจิบ้างได้เปล่าจ๊ะ อิอิ5555666777             
    ((ขอคอร์ดกีต้าร์))

ขอเชิญร่วมแสดงความคิดเห็นครับ

คลิกที่รูป เพื่อแทรกรูปลงในข้อความ
  • Member :
    username
    password
  • Not a member :
    name
    email