Loading

เพลง ขอเพียงโอกาส

สุนทรี

อัพโหลดคลิปเพลงนี้ที่คุณ ร้อง/เล่น ด้วยตัวคุณเอง ได้แล้ววันนี้
ระหว่างการทดสอบระบบหากพบข้อผิดพลาด กรุณาแจ้งที่นี่
Print
ชื่อเพลง: ขอเพียงโอกาส 
อัลบั้ม: สุนทรี
ถึงแม้จะเป็นแค่ความสงสารก็ยอม
เป็นรักปลอมๆก็ยินดีน้อมรับมา
หากเป็นวิธีที่ทำให้เราใกล้ตา
มันคงดีกว่าท่าทีที่ดูหมางเมิน

อยากให้เธอลองหันมองที่ฉันสักหน่อย
อย่าปล่อยให้คอยใจลอยบ้าบอข้างเดียว
ฉันพร่ำฉันเพ้ออย่าคิดว่าเธอไม่เกี่ยว
เพราะเธอคนเดียวต้นเหตุที่ใจฉันเป็น

แค่ความสงสาร แค่ความเห็นใจ
ขอกันซื่อๆให้กันได้ไหม ได้ไหม
แค่ลองมาคบ แค่ลองเปิดใจ
ขอเพียงโอกาสให้กันแค่นี้ก็ดีเกินพอ

ไม่ลองคบกันอย่าเพิ่งมองฉันไม่ดี
อย่าตัดไมตรีไม่ชอบยินดีร่ำลา
มันคงไม่รบกวนเธอมากไปหรอกหนา
คิดว่าเวทนาคนที่ตั้งใจรักเธอ

แค่ความสงสาร แค่ความเห็นใจ
ขอกันซื่อๆให้กันได้ไหม ได้ไหม
แค่ลองมาคบ แค่ลองเปิดใจ
ขอเพียงโอกาสให้กันแค่นี้ก็ดีเกินพอ

แค่ความสงสาร แค่ความเห็นใจ
ขอกันซื่อๆให้กันได้ไหม ได้ไหม
แค่ลองมาคบ แค่ลองเปิดใจ
ขอเพียงโอกาสให้กันแค่นี้ก็ดีเกินพอ

ขอเพียงโอกาสให้ฉัน มีสิทธิ์รักเธอก็พอ
http://www.musicatm.com/thai/คอร์ดเพลง-ขอเพียงโอกาส-สุนทรี-4878.html
ดาวน์โหลด Full Song
กด *424243045596584
กด *424243045596584
ดาวน์โหลด Truetone
กด *424218045596584
กด *424218045596584
กด *424218045596584
ดาวน์โหลด Poly
กด *424214045596584
กด *424214045596584
กด *424214045596584
ดาวน์โหลด Mono
กด *424211045596584
กด *424211045596584
กด *424211045596584
* อัตราค่าบริการดาวน์โหลด Fullsong, Truetone, Poly, Mono : 35 บาท/เพลง
ส่งเพลงนี้ให้เพื่อน
วันที่โพสต์ : 23 ก.ย.2548,20:39น. 203.172.61.175
จำนวนผู้ชม : 190899 คน / แสดงความคิดเห็น : 128 ครั้ง
โพสต์โดย


จาก: ตั๋ง
เข้าร่วม: 9 ปีก่อน
เพลง: 0
โพสต์: 1
เพลงแนะนำ
เพลงฮิต
เลือกแสดงเฉพาะ :

  • 22 มิ.ย.2556,08:44น. 223.205.14.165
    เพลง ขอเพียงโอกาส        
    วง สุนทรี

    intro
    Gm C Am Dm Gm C Am Dm
    ถึงแม้จะเป็นแค่ความสงสารก็ยอม เป็นรักปลอมๆก็ยินดีหนอ.....รับมา
    Gm C Am Dm Gm C
    หากเป็นวิธีที่ทำให้เราใกล้ตา มันคงดีกว่าท่าทีที่ดูหมางเมิน
    Gm C Am Dm Gm C Am Dm
    อยากให้เธอลองหันมองที่ฉันสักหน่อย อย่าปล่อยให้คอยใจลอยบ้าบอข้างเดียว
    Gm C Am Dm Gm C F
    ฉันพร่ำฉันเพ้ออย่าคิดว่าเธอไม่เกี่ยว เพราะเธอคนเดียวต้นเหตุที่ใจฉันเป็น
    Bb C Am Dm Gm C F
    *แค่ความสงสาร แค่ความเห็นใจ ขอกันซื่อๆให้กันได้ไหม ได้ไหม
    Bb C Am Dm Gm C F
    แค่ลองมาคบ แค่ลองเปิดใจ ขอเพียงโอกาสให้กันแค่นี้ก็ดีเกินพอ
    Gm C Am Dm Gm C Am Dm
    ไม่ลองคบกันอย่าเพิ่งมองฉันไม่ดี อย่าตัดไมตรีไม่ชอบยินดีร่ำลา
    Gm C Am Dm Gm C F
    มันคงไม่รบกวนเธอมากไปหรอกหนา คิดว่าเวทนาคนที่ตั้งใจรักเธอ
    (*)
    Solo Bb C Am Dm Gm C F *2
    (*)

    ขอเพียงโอกาสให้ฉัน..มีสิทธิ์รักเธอก็พอ..


    แกะเอง มั่วๆ ประมานนี้ครับ ใครเสริมเอาเลย ครับ :D
  • 4 ต.ค.2556,22:21น. 49.48.104.33
    
    
    Intro

    เส้น3}-3--3--3--2--0-----3>5--5--5--7--2----5--5--3--3--5--2--0--
    เส้น4}----------------3--0----------------------------------------------3-
  • amm
    Guest
  • 24 ก.ย.2548,12:29น.
    เพราะโคตรอ่ะ  ชอบมั่กมาก  ขอคอร์ดด่วนเลยค่ะ
    ((ขอคอร์ดกีต้าร์))
  • amm
    Guest
  • 24 ก.ย.2548,12:33น.
    มิน่าเชื่อ  โพสคนแรกววุ้ย
    ((ขอคอร์ดกีต้าร์))
  • หนุ่ม
    Guest
  • 24 ก.ย.2548,20:04น.
    เพราะมากๆๆๆๆ ไครมีคอร์ดบ้างอ่ะ
    ((ขอคอร์ดกีต้าร์))
  • AooD_FoN
    Guest
  • 25 ก.ย.2548,09:10น.
    จริงป่าว 
  • 25 ก.ย.2548,11:33น.
    เพลงนี้ไม่ใช่ของโซคูลหรอกเหรอ 
  • 27 ก.ย.2548,01:20น.
    3:-----3-3-2-0---------------5-5-----7
    4:-------------------5--3--5---------------7

    3:------5-5---3-2--2-3-2------------0
    4:-8---------------------------5--3
  • 27 ก.ย.2548,09:03น.
    3:----3-3-3-2-0---------5-5-5-7
    4:-------------------3-0-------------7

    3:----5-5-3-3-5
    4:------------------7-5-5-3-2-3
  • rrrrrrrrrrr
    Guest
  • 3 ต.ค.2548,15:29น.
    เพลงนี้เพราะมากๆๆๆ
    ขอแนะนำ
    ((ขอคอร์ดกีต้าร์))
  • แนะนำ
    Guest
  • 3 ต.ค.2548,15:31น.
    ฟังได้ที่  gmember.com  ครับ
    ขอบอกว่าคนที่กำลังมีความรักฟังเหมือนเพลงนี้เลย
  • ริสคุง
    Guest
  • 4 ต.ค.2548,10:45น.
    เพราะโครตเลย พี่ ชอบมันตรงกับชีวิตผมดี โชคดีของผมแล้วและที่มีคนแต่งเพลงนี้ ไม่นั้นเธอคนนั้นคงไม่เขาใจผม    
  • tamkai
    Guest
  • 8 ต.ค.2548,19:56น.
    แนะนำท่อนSolo มาหน่อยคับ        
  • tamkai
    Guest
  • 8 ต.ค.2548,20:03น.
    3:---3-3-2-0------------5-5-5----7
    4:---------------5-3-5-----------------7

    3:---5-5-3-3-5
    4:------------------7-5-2-3-5-7
  • เอมมะหลี MainnoZ
    Guest
  • 15 ต.ค.2548,17:04น.
    Intro

    3)-------------------------------5-5-5--7---------5-5-------5--------------------

    4)---8-8-8--7--5---------------------------7----------8-8-----7--5-5---33----

    5)----------------------8----5-------------------------------------------------------

    ( น่าจะตรง นะครับ ผิดตรงไหนติด้วยนะครับ )


    Solo: อันนี้ไม่มั่นใจนะครับ แต่ว่า ผมเล่น แล้วเสียงมันอยู่ในคีย์อ่ะครับ แต่อาจจะไม่ตรง เป๊ะๆ -_-"
    2)-------------------15-----------------13---15----10---------------------------------------10-----------------------13-13----10--------------10

    3)--10--12--10--------10--12--10--------------------12---10--------------10--12h-------12--10--12--12--10--12--12

    4)-----------------------------------------------------------------------10--12h--------------------------------12

    ไม่แน่ใจเยยอ่างับ >.<
  • เอมมะหลี MainnoZ
    Guest
  • 15 ต.ค.2548,17:11น.
    Intro

    3)-------------------------------5-5-5--7---------5-5-------5--------------------

    4)---8-8-8--7--5---------------------------7----------8-8-----7--5-5---33----

    5)----------------------8----5-------------------------------------------------------

    ( น่าจะตรง นะครับ ผิดตรงไหนติด้วยนะครับ )


    Solo: อันนี้ไม่มั่นใจนะครับ แต่ว่า ผมเล่น แล้วเสียงมันอยู่ในคีย์อ่ะครับ แต่อาจจะไม่ตรง เป๊ะๆ -_-"
    2)-------------------15-----------------13---15----10---------------------------------------10------------------------------------13-13----10--------------------10----

    3)--10--12--10--------10--12--10--------------------12---10--------------10--12h-----------12--10--12--12--10----------------------------------12--12-------------

    4)-----------------------------------------------------------------------10--12h----------------------------------------------12-----------------------------------------

    แก้หน่อยครับ กี้กดผิดไปนิสนึง ^^
  • babygold
    Guest
  • 24 ต.ค.2548,10:14น.
    หนุกดี อยากได้ ทั้งแทบ หมดเลยอ่าคับ
    ((ขอคอร์ดกีต้าร์))
  • แบ็ค
    Guest
  • 24 ต.ค.2548,17:37น.
    intro
    3)----3--3--2--0------0
    4)--3--5
    3)--2
    4--5--3
    ท่อนแรกน้าจะประมาณนี้นะ
  • แป๋ว
    Guest
  • 27 ต.ค.2548,14:40น.
    ชอบคะ 
  • bird
    Guest
  • 29 ต.ค.2548,11:41น.
    นะ



    ((ขอคอร์ดกีต้าร์))
  • คนเพลง
    Guest
  • 1 พ.ย.2548,12:32น.
                                                                                                                                                                                                                   ทุกคนเยี่ยมมาก            

    ตั้งใจฝึกกันต่อ....................ไป
    ยอมรับว่าเพลงเพราะมากมาก
  • feetamaki ูถูกแล้วละครับ
    Guest
  • 2 พ.ย.2548,21:11น.
    3)---3-3-2-0--------5-5-5-7----5-5------5-------------
    4--------------5-3-0-----------7-------8-8---7-5-3------
  • หุถุ
    Guest
  • 4 พ.ย.2548,18:36น.
    ชอบ มักกกกกกกกกกกกกกกกกกกกกกกกก เด็กบ้านนอกอย่างพี่เขาก็ทำได้เหะ (เราก้อเดะบ้านนอก)
  • คนที่มีชีวิต ตรง เพลงนี้
    Guest
  • 6 พ.ย.2548,17:55น.
    ฉะช่วง ที่แค่ความสงสาร นี่ เพราะสุดๆ เลย ตรง กับผม เลย
  • คนน่ารัก
    Guest
  • 7 พ.ย.2548,08:39น.
    อยากฟังเพลงนี้นะค่ะเค้าๆฟังกันที่ไหนหรอค่ะ
    ด่วน
  • นัท
    Guest
  • 9 พ.ย.2548,11:41น.
    หวัดดีค่ะเพื่อนๆ ชาว music2go อยากได้คอร์ดกีต้าร์จัง โอ้ย เราอยากจะคุยกับเพื่อนๆจัง
    แต่เราคุยไม่ได้เดี๋ยวอาจารย์ว่า โทรให้คำแนะนำได้ที่0277-02-861-8745กด5นะค่ะ
    ชื่อนัทค่ะ รักเด็ก เล่นกีต้าร์ ชอบปลูกต้นไม้
  • 9 พ.ย.2548,17:23น.
    เราขอโอกาสแล้ว แต่เธอไม่ให้เรา เซ็ง อกหักอีกแล้ว
  • คนบ้าดนตรี
    Guest
  • 6 ธ.ค.2548,09:38น.
              อยากเล่นกีต้าร์เก่งเหมือน  พี่เสกจัง   อยากรู้จักรทุกคนที่รักในเสียงดนตรี  ชื่อบาสนะ   
  • ยากะ
    Guest
  • 6 ธ.ค.2548,11:39น.
    ขอบคุณมากคะที่ส่งมาให้    

ขอเชิญร่วมแสดงความคิดเห็นครับ

คลิกที่รูป เพื่อแทรกรูปลงในข้อความ
  • Member :
    username
    password
  • Not a member :
    name
    email