Loading

เพลง คนเก็บฟืน

คาราบาว

อัพโหลดคลิปเพลงนี้ที่คุณ ร้อง/เล่น ด้วยตัวคุณเอง ได้แล้ววันนี้
ระหว่างการทดสอบระบบหากพบข้อผิดพลาด กรุณาแจ้งที่นี่

Title :คนเก็บฟืน
Artist : คาราบาว

เล่นแล้วคิดถึงสมัยเก่าๆ เศร้าๆ


INTRO;

Em G D Em
--0-----------3---2h3h2h0---------------------0-------------------0------------------------------------------0--------------------
-------0-------------------------3-------------3-------3----------0------------3-------3---3---0------------------0----------------
-----------0--------------------------2---4----------------4---------------2-------2---2---2---0--2-0-----0--------0-------------
------------------------------------------------------------------------------0-------------------------2-0------------------2--1-0---
----------------------------------------------------------------------------------------------------------------------------------------4-
--0----------------------0----------------3--------------------3---------------------------------------------0-------------------------

C Am D G D Em G D Em
--3---------2----0----3----2----------0--------3----2------0-----------0------3----2------0-------------0--------------------
-----1----------------------------3----------3---0----3------3-----3-----0-----0----3------3-----3-------0-------------------
---------0---------------------------2------------0----2------------2-----0------0---2-------------2-------0-------------------
------------------------2----0---------------0---------0--------------------------------0------------------------------------------
--3---------2----0-------------------------------3----------------------------------------------------------------------------------
-----------------------------------------------------------------------------0------3---------------------------0--------------------

ป.ล อยากมีแฟนที่จริงใจสักคน
ส่งเพลงนี้ให้เพื่อน
วันที่โพสต์ : 15 ก.ค.2547,05:05น.
จำนวนผู้ชม : 358926 คน / แสดงความคิดเห็น : 105 ครั้ง
โพสต์โดย


จาก: miti
Guest
เพลงแนะนำ
เพลงฮิต
เลือกแสดงเฉพาะ :

  • มิติ
    Guest
  • 15 ก.ค.2547,06:12น.
    INTRO;

    Em G D Em
    --0-----------3---2h3h2h0---------------------0-------------------0------------------------------------------0--------------------
    -------0-------------------------3-------------3-------3----------0------------3-------3---3---0------------------0----------------
    -----------0--------------------------2---4----------------4---------------2-------2---2---2---0--2-0-----0--------0-------------
    ------------------------------------------------------------------------------0-------------------------2-0------------------2--1-0---
    ----------------------------------------------------------------------------------------------------------------------------------------4-
    --0----------------------0----------------3--------------------3---------------------------------------------0-------------------------

    C Am D G D Em G D Em
    --3---------2----0----3----2----------0--------3----2------0-----------0------3----2------0-------------0--------------------
    -----1----------------------------3----------3---0----3------3-----3-----0-----0----3------3-----3-------0-------------------
    ---------0---------------------------2------------0----2------------2-----0------0---2-------------2-------0-------------------
    ------------------------2----0---------------0---------0--------------------------------0------------------------------------------
    --3---------2----0-------------------------------3----------------------------------------------------------------------------------
    -----------------------------------------------------------------------------0------3---------------------------0--------------------

  • ö
    Guest
  • 16 ก.ค.2547,05:07น.
    geb



    INTRO;
    Dm G7 C Am

    --5-----------------------5--------3--------------------0---1----3--------------------------------5------------------------------
    ------------5---6----8-------------------0-------------0-----------------1-----------------------------------------------5-------
    ---------7--------------------0--------0----0------0-------0--------0------0-------0------0-------------5-----4h5-----5--0-
    ------7---------------7----------------------------------------------------------------------------------7------7-------------------
    --5-----------------------------------------------2--------------------------------3-------2----------------------------------------
    ------------------------------------3-------------------------------3--------------------------------5------------------------------


    Dm G7 Cmaj7 To Coda*
    ----------------------0----1--------------------3---1---------------------0---------------0---------------0-------------0--------
    --3-------3---------------3--------0------0-----------1---3---------1-----1----0----------0----------------1---0-------0-----
    ------2-------2------2--------0--------0--------------0-------0----------------------0---------0---------------------0------0--
    --0--------------3--------------------------------------------------------------------------------------------------------------------
    -------------------------------------------------------------------------3---------------------------------3-------------------------
    -------------------------------------3------------------------------------------------------------------------------------------------

    ฮืม.......
    Dm G7 C Am
    -------------0---1-------------------------3--1--------------------------------------------------------------------0-----------
    ---------3---------------3-------------0--------------0------------1-------------------------------1-------0h1------1------
    -----2---------------2------0------0--------------0----0------0-----0-------0------0-------2-------2-------------------0-
    --0-------------------------------------------------------------------------------------------------------------------------------
    ----------------------------------------------------------------3------------3------2-------0-----------------------------------
    ---------------------------------3------------------------------------------------------------------------------------------------

    Dm G7 Cmj7
    -------------0---1---------------------------3--1----------------0---------------0--------------0----------------0------------
    ----------3--------------3---------------0-------------0-------------1---0----------0--------------1----0-----------0--------
    ------2--------------2------0--------0-------------0-----0------------------0----------0--------------------0-----------0-----
    --0---------------------------------------------------------------------------------------------------------------------------------
    -----------------------------------------------------------------3------------------------------3-----------------------------------
    ----------------------------------3-------------------------------------------------------------------------------------------------
  • .
    Guest
  • 16 ก.ค.2547,05:10น.
    มิตะ                                 จรัญมโนเพ็ชร


    Title :มิตะ
    Artist : จรัล มโนเพ็ชร



    INTRO;
    Dm G7 C Am

    --5-----------------------5--------3--------------------0---1----3--------------------------------5------------------------------
    ------------5---6----8-------------------0-------------0-----------------1-----------------------------------------------5-------
    ---------7--------------------0--------0----0------0-------0--------0------0-------0------0-------------5-----4h5-----5--0-
    ------7---------------7----------------------------------------------------------------------------------7------7-------------------
    --5-----------------------------------------------2--------------------------------3-------2----------------------------------------
    ------------------------------------3-------------------------------3--------------------------------5------------------------------


    Dm G7 Cmaj7 To Coda*
    ----------------------0----1--------------------3---1---------------------0---------------0---------------0-------------0--------
    --3-------3---------------3--------0------0-----------1---3---------1-----1----0----------0----------------1---0-------0-----
    ------2-------2------2--------0--------0--------------0-------0----------------------0---------0---------------------0------0--
    --0--------------3--------------------------------------------------------------------------------------------------------------------
    -------------------------------------------------------------------------3---------------------------------3-------------------------
    -------------------------------------3------------------------------------------------------------------------------------------------

    ฮืม.......
    Dm G7 C Am
    -------------0---1-------------------------3--1--------------------------------------------------------------------0-----------
    ---------3---------------3-------------0--------------0------------1-------------------------------1-------0h1------1------
    -----2---------------2------0------0--------------0----0------0-----0-------0------0-------2-------2-------------------0-
    --0-------------------------------------------------------------------------------------------------------------------------------
    ----------------------------------------------------------------3------------3------2-------0-----------------------------------
    ---------------------------------3------------------------------------------------------------------------------------------------

    Dm G7 Cmj7
    -------------0---1---------------------------3--1----------------0---------------0--------------0----------------0------------
    ----------3--------------3---------------0-------------0-------------1---0----------0--------------1----0-----------0--------
    ------2--------------2------0--------0-------------0-----0------------------0----------0--------------------0-----------0-----
    --0---------------------------------------------------------------------------------------------------------------------------------
    -----------------------------------------------------------------3------------------------------3-----------------------------------
    ----------------------------------3-------------------------------------------------------------------------------------------------
  • ,
    Guest
  • 17 ก.ค.2547,04:21น.
    ของจริง

    Em G D Em
    --0-----------3---2h3h2h0---------------------0-------------------0------------------------------------------0--------------------
    -------0-------------------------3-------------3-------3----------0------------3-------3---3---0------------------0----------------
    -----------0--------------------------2---4----------------4---------------2-------2---2---2---0--2-0-----0--------0-------------
    ------------------------------------------------------------------------------0-------------------------2-0------------------2--1-0---
    ----------------------------------------------------------------------------------------------------------------------------------------4-
    --0----------------------0----------------3--------------------3---------------------------------------------0-------------------------

    C Am D G D Em G D Em
    --3---------2----0----3----2----------0--------3----2------0-----------0------3----2------0-------------0--------------------
    -----1----------------------------3----------3---0----3------3-----3-----0-----0----3------3-----3-------0-------------------
    ---------0---------------------------2------------0----2------------2-----0------0---2-------------2-------0-------------------
    ------------------------2----0---------------0---------0--------------------------------0------------------------------------------
    --3---------2----0-----------------------------------------------------------------------------------------------------------------
    ---------------------------------------------------3-------------------------0------3---------------------------0--------------------

  • X
    Guest
  • 1 ส.ค.2547,00:18น.
    ช่วยไปลงคอร์ดกัญชาทีคับ
    ((ขอคอร์ดกีต้าร์))
  • games
    Guest
  • 11 ส.ค.2547,15:38น.
    ไม่เข้าใจตรงที่ตัวเลขมันตรงกัน เช่น000  0 ในคอร์ต Em ถ้ามีเวลาส่งวิธีการอ่านมาให้ไดมั้ยครับ ขอบคุณมาก (พึงหัดเล่น)
  • สาวกโลโซ
    Guest
  • 15 ส.ค.2547,11:06น.
    เค้าดูกันอย่างไรคะหนูดูไม่เป็นขอให้  ช่วยบอกด้วย
    เพราะเพิ่งหัดเล่นกีต้าร์
  • .
    Guest
  • 18 ส.ค.2547,06:11น.
     เช่น000  0 ในคอร์ต Em     (เล่นพร้อมกันนะครับถ้าเขียนตรงกัน 0 ก็สายเปล่า คือไม่ต้องกด)
  • แอ๊ด เล็ก เที่ยรี่ ไม่ค่อยเร้าใจแล้ว ถ่านเก่า...
    Guest
  • 23 ส.ค.2547,14:14น.
    คาราบาว เล่นคอนเสริ์ต ไม่เป็น มีแต่เพลงเก่า ท่าทางนักดนตรีแต่ละคนอมทุกข์  ยืนท่าเดียว มุขเก่าจน เลิก เบื่อเสียดายตังค์ มือกีตาร์ที่ชอบก็พี่เล็ก เที่ยรี่ แต่ตอนนี้ไม่ชอบละ เพราะคิดว่าตัวเองต้องพํฒนา ได้ดีกว่านี้  ปล.ดึงดูดใจคนดูหน่อยนะ ยิ้มนะเป็นใหม ท่าทางมันมีหลายๆท่าทีให้คนดูสนใจ แต่ที่ผมไปนะ เสียใจมากกว่า เพลงเก่าๆๆๆ มากกก ถ้าวงผมเล่นแทน คงนุ๊กกว่าเจอ หมดหมด กัน ก็คราวนี้ ละ 
  • แอ้ด คาราบา(ตัวจริง)
    Guest
  • 1 ก.ย.2547,19:24น.
    อย่ากไคอร์กีต้ร์ 
    ((ขอคอร์ดกีต้าร์))
  • V
    Guest
  • 26 ก.ย.2547,09:54น.
    CARAO BAO COOL 
  • น้องศรี
    Guest
  • 27 ก.ย.2547,17:16น.
    18  ฝน  ของเสือ  ขอคอร์ตหน่อยครับ  
    ((ขอคอร์ดกีต้าร์))
  • outlaws
    Guest
  • 28 ส.ค.2549,02:06น.
     งง งง งง งง งงงงงง
  • เด็กนิรนาม
    Guest
  • 14 ก.ย.2549,18:27น.
    ใครเป็นคนทำเนี่ย ทุเรศจัง
    ((ขอคอร์ดกีต้าร์))
  • ด.ช.
    Guest
  • 18 ก.ย.2549,21:10น.
    น่าจะมีเนื้อหน่อยนะครับ     
  • a
    Guest
  • 11 ต.ค.2549,11:16น.
          
  • as
    Guest
  • 27 ต.ค.2549,18:02น.
    ตัว h คือไรครับ
  • น้องใหม่ เริ่มเล่นกีต้าร์
    Guest
  • 3 พ.ย.2549,18:29น.
    ขอคอร์ดเพลง ลืมไม่ลง  หน่อยนะค่ะ ที่ขึ้นต้น   ** โอ โอย ห้วใจ ทำไฉนถึงจะลืมเขา  และขอแพทเทิน การเกากีต้าร์ด้วยนะค่ะ 
    ((ขอคอร์ดกีต้าร์))
  • น้องใหม่ เริ่มเล่นกีต้าร์
    Guest
  • 3 พ.ย.2549,18:39น.
    ดูtab ไม่เป็นเลย ขอคอร์ดเพลง ปลูกต้นรัก หลง ลงลาย ขอแพทเทิน การเกากีต้าร์ด้วยนะค่ะและขอแพทเทินการเกาในแต่ละเพลง ดีก่านะค่ะ
    ((ขอคอร์ดกีต้าร์))
  • qsxdrfvgyujnm,.;lkiop
    Guest
  • 29 ต.ค.2549,23:11น.
    9956วิศรุต  บุตะเขียว
    5546
  • wsxdrfvgyhnoiujkl,m
    Guest
  • 29 ต.ค.2549,23:14น.
    ต้า.326+-ส่งมาให้พวกคุณด้วยความ งงมาก 
  • มือเก๋าแต่ไมเก่ง
    Guest
  • 23 พ.ย.2549,10:55น.
    ขอโซโล้ท่อนกลางหน่อยคับ
  • หัดเล่น
    Guest
  • 1 ธ.ค.2549,15:29น.
    เล่นไม่เก่งหลอกแต่ก็ เล็นเพลงนี้ เปะเละวะ ได้แค่คำร้องคอร์ดไม่มีเขียนทำไม
  • ตี๋ใหญ่
    Guest
  • 4 ธ.ค.2549,12:53น.
    นึกว่าจะแกะก่งจริงแกะอะไรก็ไม่รู้
  • มอส
    Guest
  • 15 ธ.ค.2549,12:26น.
    คิดแล้วเศร้าจริงๆ  
  • มอส
    Guest
  • 15 ธ.ค.2549,12:26น.
    คิดแล้วเศร้าจริงๆ  
  • มอส
    Guest
  • 15 ธ.ค.2549,12:26น.
    คิดแล้วเศร้าจริงๆ  

ขอเชิญร่วมแสดงความคิดเห็นครับ

คลิกที่รูป เพื่อแทรกรูปลงในข้อความ
  • Member :
    username
    password
  • Not a member :
    name
    email