Loading

เพลง คนเก็บฟืน

คาราบาว

อัพโหลดคลิปเพลงนี้ที่คุณ ร้อง/เล่น ด้วยตัวคุณเอง ได้แล้ววันนี้
ระหว่างการทดสอบระบบหากพบข้อผิดพลาด กรุณาแจ้งที่นี่

Title :คนเก็บฟืน
Artist : คาราบาว

เล่นแล้วคิดถึงสมัยเก่าๆ เศร้าๆ


INTRO;

Em G D Em
--0-----------3---2h3h2h0---------------------0-------------------0------------------------------------------0--------------------
-------0-------------------------3-------------3-------3----------0------------3-------3---3---0------------------0----------------
-----------0--------------------------2---4----------------4---------------2-------2---2---2---0--2-0-----0--------0-------------
------------------------------------------------------------------------------0-------------------------2-0------------------2--1-0---
----------------------------------------------------------------------------------------------------------------------------------------4-
--0----------------------0----------------3--------------------3---------------------------------------------0-------------------------

C Am D G D Em G D Em
--3---------2----0----3----2----------0--------3----2------0-----------0------3----2------0-------------0--------------------
-----1----------------------------3----------3---0----3------3-----3-----0-----0----3------3-----3-------0-------------------
---------0---------------------------2------------0----2------------2-----0------0---2-------------2-------0-------------------
------------------------2----0---------------0---------0--------------------------------0------------------------------------------
--3---------2----0-------------------------------3----------------------------------------------------------------------------------
-----------------------------------------------------------------------------0------3---------------------------0--------------------

ป.ล อยากมีแฟนที่จริงใจสักคน
ส่งเพลงนี้ให้เพื่อน
วันที่โพสต์ : 15 ก.ค.2547,05:05น.
จำนวนผู้ชม : 354030 คน / แสดงความคิดเห็น : 102 ครั้ง
โพสต์โดย


จาก: miti
Guest
เพลงแนะนำ
เพลงฮิต
ผู้สนับสนุน
เลือกแสดงเฉพาะ :

1

ขอเชิญร่วมแสดงความคิดเห็นครับ

คลิกที่รูป เพื่อแทรกรูปลงในข้อความ
  • Member :
    username
    password
  • Not a member :
    name
    email