Loading

เพลง คนใกล้บ้าน

บ่าววี

อัพโหลดคลิปเพลงนี้ที่คุณ ร้อง/เล่น ด้วยตัวคุณเอง ได้แล้ววันนี้
ระหว่างการทดสอบระบบหากพบข้อผิดพลาด กรุณาแจ้งที่นี่
Title / เพลง : คนใกล้บ้าน
ศิลปิน / Artist : บ่าววี
อัลบั้ม / Album : บ่าววี 2
Lyrics / เนื้อเพลง คนใกล้บ้าน

คนบ้านแค่แค่ ไม่รักไม่แลไม่แคร์ไม่สน
ตัวดำมอทอไม่หล่อไม่โดน ไม่เหมือนกับคนที่ขี่รถเก๋ง
ไอ้เท่งไอ้ทองเขาคงไม่มองไม่เหมือนรถเบนซ์
คนตัวดำดำเนื้อตัวมันเหม็น ได้เป็นแค่ตัวสำรอง

* นอนเป่าปี่ทั้งปีทั้งชาติ
มันน่าอนาถ แลขาดถ้าม่ายคู่ครอง
ยังมีแลไหมคนม่ายเจ้าของ
ยังขอรับรองรักน้องให้น้องเม็ดใจ

** ให้น้องแลตรงที่หัวใจ
มีความจริงใจให้เธอดู
จะรักแต่น้องจงรับรู้
รักหลอยจังฮู้ดูแววตา

*** คนบ้านแค่แค่ ไม่รักไม่แลไม่แคร์ไม่สน
ทุกวันหยบแลไอ้เรามันจน สาวหลายคนเขาสมน้ำหน้า
ไอ้โพ่ไอ้พางมันไม่สำอางค์ไม่เหมือนดารา
ไอ้คนพรรค์เราเขาว่ามันบ้า เหมือนหมาเหินแลเครื่องบิน

(ซ้ำ *, **, ***)
ส่งเพลงนี้ให้เพื่อน
วันที่โพสต์ : 20 พ.ย.2550,19:48น. 203.149.29.251
จำนวนผู้ชม : 104925 คน / แสดงความคิดเห็น : 35 ครั้ง
โพสต์โดย


จาก: Ant
เข้าร่วม: 7 ปีก่อน
เพลง: 0
โพสต์: 10
เพลงแนะนำ
เพลงฮิต
ผู้สนับสนุน
เลือกแสดงเฉพาะ :

  • 20 พ.ย.2550,19:51น. 203.149.29.251
    ใครมี Tab หรือคอร์ด เอามาลงทีครับ ((ขอคอร์ดกีต้าร์))
  • ตั้ม
    Guest
  • 21 พ.ย.2550,10:57น. 203.146.16.140
    อยากได้แทป ครับ

  • somaud
    Guest
  • 21 พ.ย.2550,15:58น. 203.113.51.102
                             G            Bm            Em
    คนบ้านแค่แค่ ไม่รักไม่แลไม่แคร์ไม่สน
    G Am D Em
    ตัวดำมอทอไม่หล่อไม่โดน ไม่เหมือนกับคนที่ขี่รถเก๋ง

  • รัตนพันธ์
    Guest
  • 21 พ.ย.2550,16:30น. 203.121.167.241
    ((ขอคอร์ดกีต้าร์))
  • 21 พ.ย.2550,21:27น. 58.9.39.231
    อยากได้ท่อน โซโล่ทุกอันอ่าครับ รู้สึกว่าเพลงนี้ โซโล่เยอะเหมือนกัน ทั้งใน intro Solo แม้กระทั้งในคำร้องยังมีเลยย ใครแกะได้ แนะนำทีครับ
  • 21 พ.ย.2550,22:34น. 61.7.132.176

    คนใกล้บ้าน
    ศิลปิน : บ่าววี
    Title / เพลง : คนใกล้บ้าน
    ศิลปิน / Artist : บ่าววี
    อัลบั้ม / Album : บ่าววี 2
    Lyrics / เนื้อเพลง คนใกล้บ้าน

    solo: Am Em/Am Em
    Am Em Am
    คนบ้านแค่แค่ ไม่รักไม่แลไม่แคร์ไม่สน
    Am Em Am Em
    ตัวดำมอทอไม่หล่อไม่โดน ไม่เหมือนกับคนที่ขี่รถเก๋ง
    C
    ไอ้เท่งไอ้ทองเขาคงไม่มองไม่เหมือนรถเบนซ์

    คนตัวดำดำเนื้อตัวมันเหม็น ได้เป็นแค่ตัวสำรอง

    * นอนเป่าปี่ทั้งปีทั้งชาติ

    มันน่าอนาถ แลขาดถ้าม่ายคู่ครอง

    ยังมีแลไหมคนม่ายเจ้าของ

    ยังขอรับรองรักน้องให้น้องเม็ดใจ

    ** ให้น้องแลตรงที่หัวใจ

    มีความจริงใจให้เธอดู

    จะรักแต่น้องจงรับรู้

    รักหลอยจังฮู้ดูแววตา

    *** คนบ้านแค่แค่ ไม่รักไม่แลไม่แคร์ไม่สน

    ทุกวันหยบแลไอ้เรามันจน สาวหลายคนเขาสมน้ำหน้า

    ไอ้โพ่ไอ้พางมันไม่สำอางค์ไม่เหมือนดารา

    ไอ้คนพรรค์เราเขาว่ามันบ้า เหมือนหมาเหินแลเครื่องบิน

    (ซ้ำ *, **, ***)



    เดียวมาแก้ให้นะมันลืมคอร์ดงะยังจำไม่ด้าย - -*
  • 22 พ.ย.2550,12:01น. 203.146.63.183
    เพลง: คนใกล้บ้าน 
    ศิลปิน: บ่าววี
    อัลบั้ม: บ่าววี 2

    คำร้อง: นิยม เอียดทวี
    ทำนอง: นิยม เอียดทวี
    เรียบเรียง: สร่างศัลย์ เรืองศรี
    Intro//Gm/Dm/Eb/F/ Gm/Dm/Cm/F

    Gm F Gm
    คนบ้านแค่ แค่ ไม่รักไม่แล ไม่แคร์ไม่สน
    Bb Cm Dm Gm
    ตัวดำมอท่อ ไม่หล่อไม่โดน ไม่เหมือนกับคนที่ขี่รถเก๋ง
    Bb Gm Cm
    ไอ้เท่ง ไอ้ทองเขาคงไม่มอง ไม่เหมือนรถเบนซ์
    F Dm Gm
    คนตัวดำดำเนื้อตัวมันเหม็น ได้เป็นแค่ตัวสำรอง
    Eb F Gm Dm Gm
    * นอนเป่าปี่ทั้งปีทั้งชาติ มันน่าอนาถแลท่าหาไม่คู่ครอง
    Eb F Gm Dm Gm
    ยังมีเลยไหมคนไม่เจ้าของ อยากขอรับรอง รักน้องให้น้องเหม็ดใจ
    Eb F Gm Eb F Gm
    ให้น้องแลตรงที่หัวใจ มีความจริงใจให้เธอดู
    Eb F Gm Eb F Gm
    จะรักแต่น้องจงรับรู้ รักหรอยจังฮู้ ดูแววตา
    Gm F Gm
    **คนบ้านแค่ แค่ ไม่รักไม่แล ไม่แคร์ไม่สน
    Bb Cm Dm Gm
    ทุกวันหยบแลไอ้เรามันจนสาวหลายคนเขาสมน้ำหน้า
    Bb Gm Cm
    ไอ้คอ ไอ้คาง มันไม่สำอาง ไม่เหมือนดารา
    F Dm Gm
    ไอ้คนพรรค์เรา เขาว่ามันบ้า เหมือนหมาเฮิดแลเครื่องบิน

    (**,**)
  • 22 พ.ย.2550,21:11น. 58.9.40.6
    เพลง / Title : คนใกล้บ้าน					
    ศิลปิน / Artist : บ่าววี
    อัลบั้ม / Album : บ่าววี 2
    Lyrics / เนื้อเพลง คนใกล้บ้าน

    Intro : Dm / Gm / Dm / Eb / F
    Gm / Dm / Cm / F
    Gm F Gm
    คนบ้านแค่แค่ ไม่รักไม่แลไม่แคร์ไม่สน
    Bb Cm Dm Gm
    ตัวดำมอทอไม่หล่อไม่โดน ไม่เหมือนกับคนที่ขี่รถเก๋ง
    Bb Gm Cm
    ไอ้เท่งไอ้ทองเขาคงไม่มองไม่เหมือนรถเบนซ์
    F Dm Gm
    คนตัวดำดำเนื้อตัวมันเหม็น ได้เป็นแค่ตัวสำรอง
    Bb F Gm
    * นอนเป่าปี่ทั้งปีทั้งชาติ
    Dm Gm
    มันน่าอนาถ แลขาดถ้าม่ายคู่ครอง
    Eb F Gm
    ยังมีแลไหมคนม่ายเจ้าของ
    Dm Gm
    ยังขอรับรองรักน้องให้น้องเม็ดใจ
    Eb F Gm
    ** ให้น้องแลตรงที่หัวใจ
    Eb F Gm
    มีความจริงใจให้เธอดู
    Eb F Gm
    จะรักแต่น้องจงรับรู้
    Eb F Gm
    รักหลอยจังฮู้ดูแววตา
    Gm F Gm
    *** คนบ้านแค่แค่ ไม่รักไม่แลไม่แคร์ไม่สน
    Bb Cm Dm Gm
    ทุกวันหยบแลไอ้เรามันจน สาวหลายคนเขาสมน้ำหน้า
    Bb Gm Cm
    ไอ้โพ่ไอ้พางมันไม่สำอางค์ไม่เหมือนดารา
    F Dm Gm
    ไอ้คนพรรค์เราเขาว่ามันบ้า เหมือนหมาเหินแลเครื่องบิน
    Solo : Bb / F / Gm / (2 Times)
    Cm / Dm / Cm / Gm / Eb / Dm / Gm
    (ซ้ำ *, **, ***)
    Outro : Gm / Dm / Gm / Dm / Cm / Dm / Gm
    -----------------------------------------------------------------------------------------------------------
    ปล. ผมแกะได้แบบนี้อ่าครับ ผิดถูกไม่ว่ากันเน้อ อยากบอกว่า อยากได้แท๊ปมาก ๆ
  • 22 พ.ย.2550,21:13น. 58.9.40.6
    แบบที่เขียนไว้ลงตำแหน่งถูก แต่พอโพสแล้ว คอร์ดบอกตำแหน่งผิดหลายที่เลยแฮะ เอาเปงว่าจับจังหว่ะเอาเองละกัน
  • 24 พ.ย.2550,23:08น. 203.149.29.78
    ไม่มีเหงมีใครมีช่วยแกะเลย
  • .......
    Guest
  • 26 พ.ย.2550,01:04น. 124.120.31.69
    Eb จับยังไงครับพี่

    1------------------------------------------------
    2------------------------------------------------
    3------------------------------------------------
    4------------------------------------------------
    5------------------------------------------------
    6------------------------------------------------

    ขอบคุณครับ
  • 007
    Guest
  • 26 พ.ย.2550,14:21น. 124.157.148.172
    ไม่มีท่อนSOLOเลย ((ขอคอร์ดกีต้าร์))
  • 26 พ.ย.2550,20:47น. 58.9.40.68
    บาร์ 1 บาร์ 2 บาร์ 3 บาร์ 4
    1------------|--------------|------O----|------------|
    2------------|--------------|------------|------O----|
    3------------|--------------|------O----|------------|
    4------------|--------------|------------|------------|
    5------------|--------------|------------|------------|
    6------------|--------------|------------|------------|

    ***คอร์ด Eb น่าจะจับประมาณนี้น่ะ จับคล้าย ๆ คอร์ด D แต่เลื่อนไปจับที่บาร์ 3 แทน
  • robert
    Guest
  • 3 ธ.ค.2550,17:39น. 125.25.130.199
                      เพลง : คนใกล้บ้าน	
    : บ่าววี

    Intro : Dm / Gm / Dm / Eb / F
    Gm / Dm / Cm / F

    Gm F Gm
    คนบ้านแค่แค่ ไม่รักไม่แลไม่แคร์ไม่สน
    Bb Cm Dm Gm
    ตัวดำมอทอไม่หล่อไม่โดน ไม่เหมือนกับคนที่ขี่รถเก๋ง
    Bb Gm Cm
    ไอ้เท่งไอ้ทองเขาคงไม่มองไม่เหมือนรถเบนซ์
    F Dm Gm
    คนตัวดำดำเนื้อตัวมันเหม็น ได้เป็นแค่ตัวสำรอง
    Bb F Gm
    * นอนเป่าปี่ทั้งปีทั้งชาติ
    Dm Gm
    มันน่าอนาถ แลขาดถ้าม่ายคู่ครอง
    Eb F Gm
    ยังมีแลไหมคนม่ายเจ้าของ
    Dm Gm
    ยังขอรับรองรักน้องให้น้องเม็ดใจ
    Eb F Gm
    ** ให้น้องแลตรงที่หัวใจ
    Eb F Gm
    มีความจริงใจให้เธอดู
    Eb F Gm
    จะรักแต่น้องจงรับรู้
    Eb F Gm
    รักหลอยจังฮู้ดูแววตา
    Gm F Gm
    *** คนบ้านแค่แค่ ไม่รักไม่แลไม่แคร์ไม่สน
    Bb Cm Dm Gm
    ทุกวันหยบแลไอ้เรามันจน สาวหลายคนเขาสมน้ำหน้า
    Bb Gm Cm
    ไอ้โพ่ไอ้พางมันไม่สำอางค์ไม่เหมือนดารา
    F Dm Gm
    ไอ้คนพรรค์เราเขาว่ามันบ้า เหมือนหมาเหินแลเครื่องบิน
    Solo : Bb / F / Gm / (2 Times)
    Cm / Dm / Cm / Gm / Eb / Dm / Gm

    (ซ้ำ *, **, ***)

    Outro : Gm / Dm / Gm / Dm / Cm / Dm / Gm
  • 6 ธ.ค.2550,19:05น. 124.157.212.122
    1 -------------/------------------------/-----------------------/---------------
    2 -------------/------------------------/-----------------------/--------------
    3 -------------/-----------------------/-----------0------------/-------------
    4 -------------/-----------------------/----------------------/--------0-----
    5 -------------/-----------------------/----------------------/---------0----
    6 --------------/-----------------------/----------------------/--------------
    บาร์ 1 2 3
    Eb
  • บุ้ง ม.กท
    Guest
  • 15 ธ.ค.2550,22:01น. 124.120.220.51
    1----------------------------------------------------6-6----------------------
    2---10-8-6----8-------6-8-6-10---8-6-8-10------10-8-6-------------
    3-------------7-------7-----------------------------------------------------
    4------------------------------------------------
    5------------------------------------------------
    6------------------------------------------------

    1------------6-------6-8-6-10---13-10-8---6------------------
    2------6-8----8------------------------------------8-6------------
    3---7--------------------------------------------------------------
    4------------------------------------------------
    5------------------------------------------------
    6------------------------------------------

    ก็โอนะ
  • Ant
    Guest
  • 17 ธ.ค.2550,18:35น. 58.9.49.138
    เย้ มีคนแกะมาซะที หาตั้งนาน ขอบคุณครับ
  • 120
    Guest
  • 20 ธ.ค.2550,14:11น. 192.168.2.226 222.123.43.142
    เพลง / Title : คนใกล้บ้าน					
    ศิลปิน / Artist : บ่าววี
    อัลบั้ม / Album : บ่าววี 2
    Lyrics / เนื้อเพลง คนใกล้บ้าน

    Intro : Dm / Gm / Dm / Eb / F
    Gm / Dm / Cm / F
    Gm F Gm
    คนบ้านแค่แค่ ไม่รักไม่แลไม่แคร์ไม่สน
    Bb Cm Dm Gm
    ตัวดำมอทอไม่หล่อไม่โดน ไม่เหมือนกับคนที่ขี่รถเก๋ง
    Bb Gm Cm
    ไอ้เท่งไอ้ทองเขาคงไม่มองไม่เหมือนรถเบนซ์
    F Dm Gm
    คนตัวดำดำเนื้อตัวมันเหม็น ได้เป็นแค่ตัวสำรอง
    Bb F Gm
    * นอนเป่าปี่ทั้งปีทั้งชาติ
    Dm Gm
    มันน่าอนาถ แลขาดถ้าม่ายคู่ครอง
    Eb F Gm
    ยังมีแลไหมคนม่ายเจ้าของ
    Dm Gm
    ยังขอรับรองรักน้องให้น้องเม็ดใจ
    Eb F Gm
    ** ให้น้องแลตรงที่หัวใจ
    Eb F Gm
    มีความจริงใจให้เธอดู
    Eb F Gm
    จะรักแต่น้องจงรับรู้
    Eb F Gm
    รักหลอยจังฮู้ดูแววตา
    Gm F Gm
    *** คนบ้านแค่แค่ ไม่รักไม่แลไม่แคร์ไม่สน
    Bb Cm Dm Gm
    ทุกวันหยบแลไอ้เรามันจน สาวหลายคนเขาสมน้ำหน้า
    Bb Gm Cm
    ไอ้โพ่ไอ้พางมันไม่สำอางค์ไม่เหมือนดารา
    F Dm Gm
    ไอ้คนพรรค์เราเขาว่ามันบ้า เหมือนหมาเหินแลเครื่องบิน
    Solo : Bb / F / Gm / (2 Times)
    Cm / Dm / Cm / Gm / Eb / Dm / Gm
    (ซ้ำ *, **, ***)
    Outro : Gm / Dm / Gm / Dm / Cm / Dm / Gm
    -----------------------------------------------------------------------------------------------------------
    ปล. ผมแกะได้แบบนี้อ่าครับ ผิดถูกไม่ว่ากันเน้อ อยากบอกว่า อยากได้แท๊ปมาก ๆ
  • คนที่รักเขาข้างเดียว น
    Guest
  • 21 ธ.ค.2550,11:22น. 192.168.0.56 117.47.92.60
    ฟังเพลงนี้ทีไรเศร้าทุกทีค่ะ เพราะคนที่เราแอบรักชอบเพลงนี้ และเขาชอบร้องเพลงนี้ด้วยค่ะ
  • ต๊ะป่าโมก
    Guest
  • 23 ธ.ค.2550,18:19น. 222.123.6.24
    ทําไมไม่รักสองข้างละ
  • 24 ก.พ.2551,22:40น. 118.173.114.164


    เนวิน *อินโทร*
    1--5---------------------------------------------/----------6----68-1013-------------------------------
    2----86---6-/86--68--1110/11-----------/------68---88-----------1513--11------------686--
    3--------7---------7------------------12--10--/---7----------------------------------1210/57-------


    solo ต้องขอมาก่อนจึงจะจัดให้ครับ
  • Ant
    Guest
  • 3 มี.ค.2551,21:34น. 58.9.39.247
    งั้นผมขอละกัน จัดให้ทีจ้า ขอ Solo อยากได้มาก ๆ ครับ เอาท่อนส่งก่อนฮุค ด้วยก้อดีครับ จักขอบพระคุณอย่างมาก ผมขอแล้วน่ะจัดหั้ยทีจ้า หามานานแระ

    ปล.เจ้าของกระทู้นี้
  • ต้า
    Guest
  • 5 มี.ค.2551,14:42น. 125.24.200.160
    ขอโซ่โลคับ พี่ เนวิน
  • คน
    Guest
  • 10 มี.ค.2551,12:52น. 118.174.159.19
       เพลง : คนใกล้บ้าน	
    Intro : F#m C#m / D E /
    F#m C#m / Bm E

    F#m E F#m
    คนบ้านแค่แค่ ไม่รักไม่แลไม่แคร์ไม่สน
    A Bm C#m F#m
    ตัวดำมอทอไม่หล่อไม่โดน ไม่เหมือนกับคนที่ขี่รถเก๋ง
    A F#m Bm
    ไอ้เท่งไอ้ทองเขาคงไม่มองไม่เหมือนรถเบนซ์
    E C#m F#m
    คนตัวดำดำเนื้อตัวมันเหม็น ได้เป็นแค่ตัวสำรอง
1

ขอเชิญร่วมแสดงความคิดเห็นครับ

คลิกที่รูป เพื่อแทรกรูปลงในข้อความ
  • Member :
    username
    password
  • Not a member :
    name
    email