Loading

คอร์ดเพลง กล้าพอไหม

โปเตโต้ (Potato)

อัพโหลดคลิปเพลงนี้ที่คุณ ร้อง/เล่น ด้วยตัวคุณเอง ได้แล้ววันนี้
ระหว่างการทดสอบระบบหากพบข้อผิดพลาด กรุณาแจ้งที่นี่
Intro : C/Em7/Dm7/G(2times)C               Em7               Dm7เธอบอกกับฉัน.. เธอย้ำ ว่ากับเขา..     Gจบไป ตั้งนาน....C          Em7               Dm7และไม่มีวัน... จะกลับ..ไปรัก          Gให้ฉันไว้...ใจ...//      F                Em/Am//  ก็จริงไม่จริง ไม่รู้..คำ..พูดเธอ//     Dm7/G          C// แต่เว..ลาเขา นั้น.. เดินผ่าน...//  F                   Em/Am// ตัวเธอเอง.. ทุกครั้ง..  มี..อาการ..//     Dm7                   G// ให้ฉัน  ไว้ใจเธออย่างไร......////                 F                        Fm//// กล้ากลับไป หาเขารึเปล่า.. ไปกับฉัน..////           Em7                       A7//// กลับไปหาเขา แล้วบอก บอกว่าเรา รักกัน////         Dm7             G                   C//// ทำได้ไหม... กล้าพอไหม.. ที่จะทำ แบบนี้.....////                 F                               Fm//// กล้ากลับไป หาเขาหรือเปล่า.. กลับไปย้ำ....////           Em7                     A7//// กลับไปย้ำ คำที่บอก บอกว่าเธอไม่รักเขา..////         Dm7//// จบกันแล้ว... ((ครั้งสุดท้าย) จบกันแล้ว แล้ว แหล่ว)////      G                   F/C//// ทำให้..ฉันหน่อย..ได้ไหม.....C                  Em7                    Dm7  แค่เพียงอยากรู้.... ตอนนี้..เธอกับเขา....      G               C              Em7                  Dm7จบ กันหรือยัง..   ไม่เคยต้องการ...จะตอก..และย้ำ....      Gซ้ำ หัวใจใคร... // , ////Instru: F /G /C /G////Instru: C /Em7 /Dm7 /G /Cmaj7
ดาวน์โหลด Full Song
กด *424243161556584
กด *424243161556584
ดาวน์โหลด Truetone
กด *424218161556584
กด *424218161556584
กด *424218161556584
* อัตราค่าบริการดาวน์โหลด Fullsong, Truetone, Poly, Mono : 35 บาท/เพลง
ส่งเพลงนี้ให้เพื่อน
วันที่โพสต์ : 0 543,00:00น.
จำนวนผู้ชม : 258399 คน / แสดงความคิดเห็น : 79 ครั้ง
โพสต์โดย


จาก: พุธ
Guest
เพลงแนะนำ
เพลงฮิต
เลือกแสดงเฉพาะ :

  • unknow
    Guest
  • 13 ธ.ค.2546,15:42น.
    อินโทรมาแล้วครับ
    

    Intro : C/Em7/Dm7/G(2times)

    ((อัพเดทคอร์ดกีต้าร์))
  • unknow
    Guest
  • 13 ธ.ค.2546,15:42น.
    อินโทรมาแล้วครับ

    Intro : C/Em7/Dm7/G(2times)

    ((อัพเดทคอร์ดกีต้าร์))
  • ยิม
    Guest
  • 15 ธ.ค.2546,20:46น.
    เนื้อเพลงผิดนา
    เธอบอกกับฉัน เธอย้ำว่ากับเขา
    จบไปตั้งนาน
    และไม่มีวัน จะกลับไปรัก
    ให้ฉันไว้ใจ

    * ก็จริงไม่จริง ไม่รู้คำพูดเธอ
    แต่เวลาเขานั้นเดินผ่าน
    ตัวเธอเอง ทุกครั้งมีอาการ
    ให้ฉันไว้ใจเธออย่างไร

    ** กล้ากลับ ไปหาเขารึเปล่า ไปกับฉัน
    กลับไปหาเขาแล้วบอก บอกว่าเรารักกัน
    ทำได้ไหม กล้าพอไหมที่จะทำแบบนี้
    กล้ากลับไปหาเขาหรือเปล่า กลับไปย้ำ
    กลับไปย้ำคำที่บอก บอกว่าเธอไม่รักเขา
    จบกันแล้ว ทำให้ฉันหน่อยได้ไหม

    แค่เพียงอยากรู้ ตอนนี้เธอกับเขา
    จบกันหรือยัง ไม่เคยต้องการจะตอกย้ำ
    ซ้ำหัวใจใคร

    (*,**,**)
    ((อัพเดทคอร์ดกีต้าร์))
  • อยากเล่นเป็นอ่ะคับ สงสารหน่อยนะ
    Guest
  • 23 ม.ค.2547,22:48น.
    อยากได้tab  บ้างอ่ะคับ
    ขอหน่อยได้ป่ะ
    seemee007@hunsa.com
    ((อัพเดทแหล่งทดลองฟัง)) ((อัพเดทคอร์ดกีต้าร์)) ((ขอคอร์ดกีต้าร์))
  • โดน
    Guest
  • 1 ก.พ.2547,15:30น.
    เก่งกันจังเลยมีเทคนิคไรบอกมั่งสิ   
    ((อัพเดทคอร์ดกีต้าร์))
  • แมน01
    Guest
  • 5 ก.พ.2547,18:32น.
    ขอแทบด้วยสิครับผม
    ((อัพเดทคอร์ดกีต้าร์)) ((ขอคอร์ดกีต้าร์))
  • unknow
    Guest
  • 4 มี.ค.2547,13:50น.

    มาพูดถึงท่อนIntroกันนะครับ
    อันดับแรกต้องเข้าใจก่อนว่า เพลงนี้Lineเกากีต้าร์ กับLine Solo เขาแยกกันเล่นคนละตัว
    นั่นคือคนเล่นเกากีต้าร์ก็เกาไป....คนSoloก็Soloไป
    ดังนั้นถ้าจะเขียนTabท่อนIntro ต้องเขียนแยก 2ชุด

    มันไม่เหมือนท่อนIntroชองเพลง"ไม่ให้เธอไป" ที่อันนั้นมันเกากีต้าร์ตัวเดียวเพียวๆ

    เพลงลักษณะนี้ นักกีต้าร์ที่เล่นคนเดียวก็ต้องจับเอาทั้ง2Lineนี้ มาเล่นรวมกันโดยการดีดคนเดียว
    ซึ่งนี่แหละก็หัวใจของการเล่นแบบ" ฟิงเกอร์สไตล์ "

    แล้วจะเล่นยังไงล่ะ? .....อันนี้ก็ขึ้นอยู่กับนักกีต้าร์แต่ละคนว่าจะวางนิ้ว วางการดีดอย่างไร
    ไม่มีหลักเกณฑ์แน่นอน หัวใจสำคัญคือเก็บเสียงทั้ง2Lineนั้นให้ได้มากที่สุด
    เล่นให้เนียน ใช้สายเปล่าให้เกิดประโยชน์ ซาว์ดต้องให้ก้อง คลุม อย่าให้โหวง
    มีลูกเน้นดีดให้ชัด(ในโน๊ตของLine Solo) และดีดให้นุ่ม แผ่ว (ในโน๊ตของLine เกากีต้าร์)

    Teb ข้างล่างนี้ เป็นการเกาแบบฟิงเกอร์สไตล์ที่ผมว่าในแบบของผม
    ผมไม่สามารถเขียนบอกให้ละเอียดได้ว่าโน๊ตตัวไหนดีดเน้น หรือดีดแรง โน๊ตตัวไหนให้ซาว์ดยาวขนาดไหน โน๊ตตัวไหนใช้นิ้วไหนกดบ้าง ฯลฯ
    ลองเล่นแล้วปรับกันเองนะครับ อาจจะลองพลิกแพลงวางนิ้วที่ต่างออกไปก็ได้ เพราะบอกแล้วว่ามันไม่มีหลักตายตัว คุณอาจเจอการวางนิ้ว หรือดีดในแบบที่ต่างออกไปจากนี้ ซึ่งให้ซาว์ดที่ดีกว่าก็ได้

    สำคัญที่สุดคือ " เก็บเสียงทั้ง2Lineนั้นให้ได้มากที่สุด "



    C Em7

    1 II-----0--------------0------------------------------10--10-----------------
    2 II-----1---------1-------1-0-1-----------------8---8---8------------------
    3 II-----0----0----------------------5S7--------------------------------------
    4 II-----2-----------------------------------------------------------------------
    5 II-----3-----------------------------------------------------------------------
    6 II-----0---------------------------------------0-------------------------------


    Dm7 G7

    1 II-----------------1-----------------------------------------------------------
    2 II-----------------1----0--1-------1H3--1---------------------1---------
    3 II---0H2--2------------------------------------4S2--0-------------2-----
    4 II---0-------------------------------------------------------------------------
    5 II------------------------------------------------------------------------------
    6 II------------------------------------3--------------------------3------------

    C Em7

    1 II-----0--------------------------------------10--10----------------------------
    2 II-----1----------1-0-1-----------------8---8---8-----------------------------
    3 II-----0-------0-----------5-S-7--------------------------------------------
    4 II-----2-----------------------------------------------------------------------
    5 II-----3-----------------------------------------------------------------------
    6 II-----0------------------------------0----------------------------------------


    Dm7 G7

    1 II--------------------------------------------1---------------------------------
    2 II------0--1--0--1---1H3--1------------0--------------------------------
    3 II---2-----------------------------4S2----0-------0H2-------------------
    4 II---------0---------------------------------0---------------------------------
    5 II--------------------------------------------2--------------------------------
    6 II--------------------------------------------3---------------------------------


    คอร์ดก็จะเป็น C Em7 Dm7 G7 4 คอร์ดนี้เล่นวน2เที่ยว
    ลองเล่นกันดูนะครับ

    ((อัพเดทคอร์ดกีต้าร์))
  • พ.ตร.ท.ทักษิณ ชิน ซะแล้ว ประจำสน.ตลิ่งพัง ซะแล้ว
    Guest
  • 17 มี.ค.2547,13:31น.
    ขอบคุณครับ          
    ((อัพเดทแหล่งทดลองฟัง))
  • au
    Guest
  • 25 มี.ค.2547,17:45น.
    1:----------------3--10-10-------------------------------
    2:--1-0-1-3-3----------------------0-1-3-1-0---------
    3:-------------------------------2-2----------------0-----

    1:---------------3-10-10--------------------------
    2:--1-0-1-3-3--------------0-1-0-1-3-3-1-0--
    3:-0-------------------------2---------------------0

    หวังว่าคงจะใช่นะ
    ((อัพเดทคอร์ดกีต้าร์))
  • au
    Guest
  • 26 มี.ค.2547,14:52น.
    ท่อนโซโล
    1:-8ห้าครั้ง-10หกครั้ง-8หกครั้ง-10หกครั้ง--12-12-12-12-12-12-12-12-12-12-12
    2:-8ห้าครั้ง-10หกครั้ง-8หกครั้ง-8หกครั้ง----------------------------------------------------
    กล้า
    1:-8-8-8-8- กลับ
    2:------------8-8-8-8 ไปหาเค้าหรือเปล่า..............
    3:-----------------------9-7-5-5
    4:----------------------------------5
    ((อัพเดทคอร์ดกีต้าร์))
  • บอม
    Guest
  • 30 เม.ย.2547,22:01น.
    tab ที่ผมแกะเองไม่รู้ถูกป่าว ช่วยบอกหน่อยนะครับ
    1-----------------------------------------------------------------------------------------
    2--------------8-------------------------------------------8-----------------------------
    3-5-4-4-7-7------------4-5-7-5-4-0-4-5-4-5-7-7----2-4-5-4-5-7-4-5-0----
    4----------------5**7-------------------------------------------------------------------
    5-----------------------------------------------------------------------------------------
    6-----------------------------------------------------------------------------------------

    ผมยังเขียนtabไม่เป็นครับตรง ** มันหมายความว่ารูดสายอ่ะ เค้าทำกันยังไงหลอบอกหน่อยนะครับ
    ((อัพเดทคอร์ดกีต้าร์))
  • l.p.p
    Guest
  • 9 พ.ค.2547,20:42น.
    ลองดู...น่าจะคล้าย
    1 ---------------------------------------------------------------------------
    2 -----2-1-2->4-----------------------------------------------------------
    3 ---------------------3-3-----5-6--->8-6-5-----------------------------
    4 ------------------------------------------------6-------------------------

    1------------------------------------------------------
    2------2-1-2->4-------------------------------------------
    3---2----------------3-5-6--5-6->8--6-5----------------------------
    4---------------------------------------------------6---
    ((อัพเดทคอร์ดกีต้าร์))
  • คนแกะเพลง
    Guest
  • 17 ม.ค.2549,21:12น.
    ท้อน intro ลองไปเล่นดู ชัวแน่
    1:------------------------------------------------------------------------------------------------------
    2:-----------------------------------------------------------------------------------------------------
    3:----------------------------------------------------------------------------------------------------
    4:----10--9--10--12--7--7--9--10--12--10--9--5--5--10--9--10--12--7--9--10--9--10--12--10-9--5
  • ผู้ไร่นาม
    Guest
  • 7 เม.ย.2549,21:37น.
    3)--5--4--5--7--7--------------------------------5--4--5--7--7
    4)--------------------7--7--9--10--12--10--5-------------------7--9--10--9--10--12--10--9--5--7
    อันนี้ ชั่วๆๆคับ
  • pong
    Guest
  • 22 ก.พ.2550,20:27น.

    ----------------------0-1-3-1-0---------
    3:-------------------------------2-2----------------0-----

    1:---------------3-10-10--------------------------
    2:--1-0-1-3-3--------------0-1-0-1-3-3-1-0--
    3:-0-------------------------2---------------------0
  • เด็กฉะ
    Guest
  • 22 ธ.ค.2550,20:49น.


    1-----------------------------------------------------------------------------------------------------------------------------
    2-----------------------------------------------------------------------------------------------------------------------------
    3--5-4-5-5/7----------------------------------------------------5-4-5-5/7----------------------------------------------
    4----------------------5/7-5/7--9-10--12-10-9--5-----3/5--------------------7-9-10-9-10-10/12--10-9--5--
    กีตาร์ตัวsolo
    น่าจะใช่นะ
  • 22 ก.ย.2557,01:35น.
    Intro : C/Em7/Dm7/G (2 times)
    
    C               Em7               Dm7
    เธอบอกกับฉัน...เธอย้ำ ว่ากับเขา...
         G
    จบไป ตั้งนาน...
    C          Em7               Dm7
    และไม่มีวัน...จะกลับ...ไปรัก
              G
    ให้ฉันไว้...ใจ....
    
         F                  Em/Am
    * ก็จริงไม่จริง ไม่รู้...คำ...พูดเธอ
          Dm7/G          C
     แต่เว...ลาเขา นั้น...เดินผ่าน...
      F                   Em/Am
     ตัวเธอเอง...ทุกครั้ง...มี...อาการ...
         Dm7                   G
     ให้ฉัน  ไว้ใจเธออย่างไร...
    
                    F                        Fm
    ** กล้ากลับไป หาเขารึเปล่า...ไปกับฉัน...
              Em7                       A7
    กลับไปหาเขา แล้วบอก บอกว่าเรา รักกัน
             Dm7             G                   C
     ทำได้ไหม...กล้าพอไหม...ที่จะทำ แบบนี้...
                    F                               Fm
    กล้ากลับไป หาเขาหรือเปล่า...กลับไปย้ำ...
              Em7                     A7
    กลับไปย้ำ คำที่บอก บอกว่าเธอไม่รักเขา...
            Dm7
    จบกันแล้ว...
         G                   F/C
    ทำให้...ฉันหน่อย...ได้ไหม...
    C                  Em7                    Dm7
      แค่เพียงอยากรู้...ตอนนี้...เธอกับเขา...
          G             C              Em7                  Dm7
    จบ กันหรือยัง...ไม่เคยต้องการ...จะตอก...และย้ำ...
          G
    ซ้ำ หัวใจใคร...
    
    (ซ้ำ*/**)
    
    Instru : F /G /C /G
    
    (ซ้ำ**)
    
    Instru : C /Em7 /Dm7 /G /Cmaj7
  • 22 ก.ย.2557,01:35น.
    Intro : C/Em7/Dm7/G(2times)
    
    C               Em7               Dm7
    เธอบอกกับฉัน.. เธอย้ำ ว่ากับเขา..
    
         G
    จบไป ตั้งนาน....
    
    C          Em7               Dm7
    และไม่มีวัน... จะกลับ..ไปรัก
    
              G
    ให้ฉันไว้...ใจ...
    
          F                Em/Am
     * ก็จริงไม่จริง ไม่รู้..คำ..พูดเธอ
    
         Dm7/G          C
     แต่เว..ลาเขา นั้น.. เดินผ่าน...
    
      F                   Em/Am
     ตัวเธอเอง.. ทุกครั้ง..  มี..อาการ..
    
         Dm7                   G
     ให้ฉัน  ไว้ใจเธออย่างไร......
    
                     F                        Fm
     ** กล้ากลับไป หาเขารึเปล่า.. ไปกับฉัน..
    
               Em7                       A7
     กลับไปหาเขา แล้วบอก บอกว่าเรา รักกัน
    
             Dm7             G                   C
     ทำได้ไหม... กล้าพอไหม.. ที่จะทำ แบบนี้.....
    
                     F                               Fm
     กล้ากลับไป หาเขาหรือเปล่า.. กลับไปย้ำ....
    
               Em7                     A7
     กลับไปย้ำ คำที่บอก บอกว่าเธอไม่รักเขา..
    
             Dm7
     จบกันแล้ว... 
    
          G                   F/C
     ทำให้..ฉันหน่อย..ได้ไหม.....
    
    C                  Em7                    Dm7
      แค่เพียงอยากรู้.... ตอนนี้..เธอกับเขา....
    
          G               C              Em7                  Dm7
    จบ กันหรือยัง..   ไม่เคยต้องการ...จะตอก..และย้ำ....
    
          G
    ซ้ำ หัวใจใคร...
    
     ซ้ำ (*,**)
    
    Instru: F /G /C /G
    
    ซ้ำ (**)
    
    Instru: C /Em7 /Dm7 /G /Cmaj7
1

ขอเชิญร่วมแสดงความคิดเห็นครับ

คลิกที่รูป เพื่อแทรกรูปลงในข้อความ
  • Member :
    username
    password
  • Not a member :
    name
    email