Loading

คอร์ดเพลง ก่อน

โมเดิร์น ด็อก (Modern Dog)

อัพโหลดคลิปเพลงนี้ที่คุณ ร้อง/เล่น ด้วยตัวคุณเอง ได้แล้ววันนี้
ระหว่างการทดสอบระบบหากพบข้อผิดพลาด กรุณาแจ้งที่นี่
Print

แกะเองน้าค้าบ ม่ายตงยังงายขอโทษด้วยน้า ^ o ^

เพลง : ก่อน
ศิลปิน : โมเดิร์น ด๊อก

Intro : A / F#m / D / E

A Amaj7 F#m
ก่อนท้องฟ้าจะสดใส ก่อนความอบอุ่นของไอแดด
D E
ก่อนดอกไม้..จะผลิบาน ก่อนความฝันอันแสนหวาน

A Amaj7
ในใจไม่เคยมีผู้ใด จนความรักเธอเข้ามา
A7 D
ทำให้ดวงตาฉันเห็นความสดใส
A Amaj7
ข้างกายไม่เคยมีผู้ใด จนความรักเธอเมตตา
A7 D
เป็นพลังให้ฉันสู้ต่อไป...(บนโลกที่โหดร้าย..)


A Amaj7 F#m
ก่อนดวงดาวจะเต็มฟ้า ก่อนชีวิตจะรู้คุณค่า
D E
ก่อนสิ้นศรัทธาจากหัวใจ ก่อนที่คนอย่างฉันจะหมดไฟ..

(*)

Solo : A / Amaj7 / F#m / D / E

D F#m
ทั้งวิญญาณและหัวใจ ให้เธอครอบครอง
D B7 E
ทั้งชีวิตให้สัญญา จะอยู่จะสู้เพื่อเธอ..


(*)

A A Amaj7 A7 D A
ในใจไม่เคยมี...ในใจไม่เคยมีผู้ใด จนเธอนั้นเข้ามาทำให้หัวใจของฉันนั้นมันสดใส
A Amaj7 A7 D
เพราะ ว่าเธอเท่านั้นที่ทำให้ฉันซึ้งในรักอันยิ่งใหญ่
A Amaj7 A7 D
และหัวใจที่เคยหวั่นไหว เปลี่ยนไปเป็นความสดใสขอเพียงให้เธอได้รู้
A Amaj7 A7 D
เพราะ..ว่าเธอเท่านั้น ที่ทำให้ฉันซึ้งในรักอันยิ่งใหญ่
A Amaj7 / F#m / D / E / A
ดวงตาฉันเห็นความสดใสก็เพราะเธอ...


http://www.musicatm.com/thai/คอร์ดเพลง-ก่อน-โมเดิร์น-ด็อก-(Modern-Dog)-1716.html
ส่งเพลงนี้ให้เพื่อน
วันที่โพสต์ : 22 มี.ค.2547,22:11น.
จำนวนผู้ชม : 265258 คน / แสดงความคิดเห็น : 46 ครั้ง
โพสต์โดย


จาก: BoAt`giggs
Guest
เพลงแนะนำ
เพลงฮิต
เลือกแสดงเฉพาะ :

  • นายกีต้าร์
    Guest
  • 2 มี.ค.2549,15:17น.
    1)------------0------------------0-----------------------------------------------------
    2)---------------------------------------------------------------------------------------
    3)-2--1--2-----2----2--1--2-----2-----วนไปเรื่อยๆครับ----------------------------
    4)--------------------------------------------------------------------------------------
    5)--------------------------------------------------------------------------------------
    6)--------------------------------------------------------------------------------------
    จนถึงคอร์ดDนะครับแล้วจึงเล่นแท็บข้างล่างต่อ
    1)-2----2----5---2----9------9-------10------9---------------------------------0---
    2)-3----3----3---3----10----10------10-----10--------------------------------2---
    3)-2----2----2---2----9------9--------9-------9------9----7---4----2---------2---
    4)------------------------------------------------------------------------------------2---
    5)---------------------------------------------------------7----5----6---4---------0---
    6)------------------------------------------------------------------------------------0---
    จบแล้วครับท่อน intro
  • ก่อน ( เพลงประจำตัวผมเอง )
    Guest
  • 25 ก.ย.2549,02:47น.
    ก่อน

    --- ------------ 0
    ---------------- 2
    ---2---1---2---2
    ------------------- ซ้ำ 1 รอบ
    ---0--------------
    -------------------


    ------------------0
    ------------------2
    ---2---1 ---2---2
    -------------------- ซ้ำ 1 รอบ
    --------------------
    ---2---------------


    ------------ 5 ------9---9---10 -- 10 ---9
    ---5---7---7-------7---7--- 8 --- 8 --- 7
    -------------7------6---6--- 7 --- 7 ---7
    ---0----------------0-------------------------
    ------------------------------------------------
    ------------------------------------------------


    ---4---------5---4----
    -------5--------------5
    ----------4-------------
    -------------------------
    -------------------------
    ---0--------------------


    -------------------------
    ---9---7---5---3------
    ---9---7---4---2------
    ---9---7---6---4------ แล้วก็เล่นซ้ำไปเรื่อยๆ
    ---7---5---4---2------
    -------------------------
  • 7 ก.ค.2556,12:23น.
    ก่อน
    Intro:
    A / A / F#m / F#m / D / D / E / E

    A F#m
    ก่อนท้องฟ้าจะสดใส ก่อนความอบอุ่นของไอแดด

    D E
    ก่อนดอกไม้จะผลิบาน ก่อนความฝันอันแสนหวาน

    A Amaj7
    * ในใจไม่เคยมีผู้ใด จนความรักเธอเข้ามา

    A7 D
    ทำให้ดวงตาฉันเห็นความสดใส

    A
    ข้างกายไม่เคยมีผู้ใด

    Amaj7 A7 D
    จนความรักเธอเมตตา เป็นพลังให้ฉันสู้ต่อไป

    Dm C#m Bm E A
    (บนโลกที่โหดร้าย เหลือเกิน)

    A F#m
    ก่อนดวงดาวจะเต็มฟ้า ก่อนชีวิตจะรู้คุณค่า

    D
    ก่อนสิ้นศรัทธาจากหัวใจ

    E
    ก่อนที่คนอย่างฉันจะหมดไฟ

    Repeat *

    Instrument:
    A / A / F#m / F#m / D / D / E / E

    D F#m
    ทั้งวิญญาณและหัวใจ ให้เธอครอบครอง

    D Bm E
    ทั้งชีวิตให้สัญญา จะอยู่จะสู้เพื่อเธอ

    Repeat * , *, *

    Outro:
    A / Amaj7 / A7 / D (X2)
  • 22 ก.ย.2557,01:35น.
    Intro : A / F#m / D / E 
    
    A               Amaj7  F#m
    ก่อนท้องฟ้าจะสดใส   ก่อนความอบอุ่นของไอแดด
           D                                    E
    ก่อนดอกไม้..จะผลิบาน ก่อนความฝันอันแสนหวาน
    
                     A              Amaj7
    ในใจไม่เคยมีผู้ใด จนความรักเธอเข้ามา 
                A7                     D
    ทำให้ดวงตาฉันเห็นความสดใส 
                         A                  Amaj7
    ข้างกายไม่เคยมีผู้ใด จนความรักเธอเมตตา
           A7               D
    เป็นพลังให้ฉันสู้ต่อไป...(บนโลกที่โหดร้าย..)
    
    
    A                  Amaj7  F#m    
    ก่อนดวงดาวจะเต็มฟ้า   ก่อนชีวิตจะรู้คุณค่า
          D                                E
    ก่อนสิ้นศรัทธาจากหัวใจ ก่อนที่คนอย่างฉันจะหมดไฟ..
    
    (*)
    
    Solo : A / Amaj7 / F#m / D / E
    
    D                             F#m
    ทั้งวิญญาณและหัวใจ ให้เธอครอบครอง
    D                           B7            E
    ทั้งชีวิตให้สัญญา จะอยู่จะสู้เพื่อเธอ..
    
    
    (*)
    
    A                  A            Amaj7       
    ในใจไม่เคยมี...ในใจไม่เคยมีผู้ใด   
     A7                  D                       A 
    จนเธอนั้นเข้ามาทำให้หัวใจของฉันนั้นมันสดใส
    A                  Amaj7    A7                   D
    เพราะ ว่าเธอเท่านั้นที่ทำให้ฉันซึ้งในรักอันยิ่งใหญ่        
         A                Amaj7                           A7                      D
    และหัวใจที่เคยหวั่นไหว เปลี่ยนไปเป็นความสดใสขอเพียงให้เธอได้รู้
    A                 Amaj7      A7                    D
    เพราะ..ว่าเธอเท่านั้น ที่ทำให้ฉันซึ้งในรักอันยิ่งใหญ่
                              A               Amaj7 / F#m / D / E / A
    ดวงตาฉันเห็นความสดใสก็เพราะเธอ...
1

ขอเชิญร่วมแสดงความคิดเห็นครับ

คลิกที่รูป เพื่อแทรกรูปลงในข้อความ
  • Member :
    username
    password
  • Not a member :
    name
    email