Loading

คอร์ดเพลง ขอเพียงโอกาส

สุนทรี

อัพโหลดคลิปเพลงนี้ที่คุณ ร้อง/เล่น ด้วยตัวคุณเอง ได้แล้ววันนี้
ระหว่างการทดสอบระบบหากพบข้อผิดพลาด กรุณาแจ้งที่นี่
ชื่อเพลง: ขอเพียงโอกาส 
อัลบั้ม: สุนทรี
ถึงแม้จะเป็นแค่ความสงสารก็ยอม
เป็นรักปลอมๆก็ยินดีน้อมรับมา
หากเป็นวิธีที่ทำให้เราใกล้ตา
มันคงดีกว่าท่าทีที่ดูหมางเมิน

อยากให้เธอลองหันมองที่ฉันสักหน่อย
อย่าปล่อยให้คอยใจลอยบ้าบอข้างเดียว
ฉันพร่ำฉันเพ้ออย่าคิดว่าเธอไม่เกี่ยว
เพราะเธอคนเดียวต้นเหตุที่ใจฉันเป็น

แค่ความสงสาร แค่ความเห็นใจ
ขอกันซื่อๆให้กันได้ไหม ได้ไหม
แค่ลองมาคบ แค่ลองเปิดใจ
ขอเพียงโอกาสให้กันแค่นี้ก็ดีเกินพอ

ไม่ลองคบกันอย่าเพิ่งมองฉันไม่ดี
อย่าตัดไมตรีไม่ชอบยินดีร่ำลา
มันคงไม่รบกวนเธอมากไปหรอกหนา
คิดว่าเวทนาคนที่ตั้งใจรักเธอ

แค่ความสงสาร แค่ความเห็นใจ
ขอกันซื่อๆให้กันได้ไหม ได้ไหม
แค่ลองมาคบ แค่ลองเปิดใจ
ขอเพียงโอกาสให้กันแค่นี้ก็ดีเกินพอ

แค่ความสงสาร แค่ความเห็นใจ
ขอกันซื่อๆให้กันได้ไหม ได้ไหม
แค่ลองมาคบ แค่ลองเปิดใจ
ขอเพียงโอกาสให้กันแค่นี้ก็ดีเกินพอ

ขอเพียงโอกาสให้ฉัน มีสิทธิ์รักเธอก็พอ
ดาวน์โหลด Full Song
กด *424243045596584
กด *424243045596584
ดาวน์โหลด Truetone
กด *424218045596584
กด *424218045596584
กด *424218045596584
ดาวน์โหลด Poly
กด *424214045596584
กด *424214045596584
กด *424214045596584
ดาวน์โหลด Mono
กด *424211045596584
กด *424211045596584
กด *424211045596584
* อัตราค่าบริการดาวน์โหลด Fullsong, Truetone, Poly, Mono : 35 บาท/เพลง
ส่งเพลงนี้ให้เพื่อน
วันที่โพสต์ : 23 ก.ย.2548,20:39น. 203.172.61.175
จำนวนผู้ชม : 190784 คน / แสดงความคิดเห็น : 127 ครั้ง
โพสต์โดย


จาก: ตั๋ง
เข้าร่วม: 9 ปีก่อน
เพลง: 0
โพสต์: 1
เพลงแนะนำ
เพลงฮิต
เลือกแสดงเฉพาะ :

  • tamkai
    Guest
  • 8 ต.ค.2548,20:03น.
    3:---3-3-2-0------------5-5-5----7
    
    4:---------------5-3-5-----------------7

    3:---5-5-3-3-5
    4:------------------7-5-2-3-5-7
  • tamkai
    Guest
  • 8 ต.ค.2548,20:03น.
    3:---3-3-2-0------------5-5-5----7
    4:---------------5-3-5-----------------7

    3:---5-5-3-3-5
    4:------------------7-5-2-3-5-7
  • เอมมะหลี MainnoZ
    Guest
  • 15 ต.ค.2548,17:04น.
    Intro

    3)-------------------------------5-5-5--7---------5-5-------5--------------------

    4)---8-8-8--7--5---------------------------7----------8-8-----7--5-5---33----

    5)----------------------8----5-------------------------------------------------------

    ( น่าจะตรง นะครับ ผิดตรงไหนติด้วยนะครับ )


    Solo: อันนี้ไม่มั่นใจนะครับ แต่ว่า ผมเล่น แล้วเสียงมันอยู่ในคีย์อ่ะครับ แต่อาจจะไม่ตรง เป๊ะๆ -_-"
    2)-------------------15-----------------13---15----10---------------------------------------10-----------------------13-13----10--------------10

    3)--10--12--10--------10--12--10--------------------12---10--------------10--12h-------12--10--12--12--10--12--12

    4)-----------------------------------------------------------------------10--12h--------------------------------12

    ไม่แน่ใจเยยอ่างับ >.<
  • เด็กวัยล่อน
    Guest
  • 3 ก.พ.2549,12:07น.
    ขอคอร์ดตรงๆหน่อยดิครับ จะเอาไปแกะเล่นอ่ะครับ คีย์มันไม่น่าขึ้นด้วยGMน่า   
1

ขอเชิญร่วมแสดงความคิดเห็นครับ

คลิกที่รูป เพื่อแทรกรูปลงในข้อความ
  • Member :
    username
    password
  • Not a member :
    name
    email