Loading

คอร์ดเพลง ข้อความ

พอส (Pause)

อัพโหลดคลิปเพลงนี้ที่คุณ ร้อง/เล่น ด้วยตัวคุณเอง ได้แล้ววันนี้
ระหว่างการทดสอบระบบหากพบข้อผิดพลาด กรุณาแจ้งที่นี่
อัลบั้ม : Mild 

Intro : D/G/D/G

D Bm G
จะอยู่ห่างไกลสักเท่าไร สิ่งหนึ่งที่ยึดในใจอยู่
A D Bm
ผูกไว้ไม่ให้เราห่างกัน คือความห่วงใยที่เธอให้ฉัน
G A
คำพูดเหล่านั้น ที่เธอคอยส่งมา
Bm BmMaj7
* ให้ฉันได้รับรู้ ให้ฉันนั้นได้มั่นใจ
Bm7 Bm6
ไม่มีสิ่งไหนที่จะลึกซึ้งถึงคุณค่า
Em7 F#m
ผ่านมาจากถ้อยคำนั้น ผ่านมาจากสายตาฉัน
G A
และสิ่งๆ นั้น บอกฉันให้รู้ตลอดมา

D Bm
** ฉันและเธอจะเดินไปด้วยกัน
G
ไม่ว่าจะทุกข์หรือว่าจะสุขสันต์
A D Bm
ฉันจะมีเธอข้างกาย วันเวลาจะนานสักเพียงไหน
G
เพื่อนฉันคนนี้ นั้นไม่มีวันห่าง
A D
และไม่มีวันจากไปไหน

Instru : D/Bm/G/A7

D Bm G
ในวันที่ฉันไม่มีใคร เปิดอ่านข้อความเก่าๆ
A
ที่มีความหมายจากวันนั้น
D Bm
คือความห่วงใยที่เธอให้ฉัน
G A
ข้อความเหล่านั้น ที่เธอคอยส่งมา

ซ้ำ( *, ** )

Instru : D/Bm/G/A (2 times)

ซ้ำ( *, ** )

Instru : D/Bm/G/A ( 2 times 'till fade )


ส่งเพลงนี้ให้เพื่อน
วันที่โพสต์ : 1 ก.ค.2546,21:30น.
จำนวนผู้ชม : 196407 คน / แสดงความคิดเห็น : 84 ครั้ง
โพสต์โดย


จาก: เว็บมาสซาเตอร์
เข้าร่วม: 9 ปีก่อน
เพลง: 0
โพสต์: 217
เพลงแนะนำ
เพลงฮิต
เลือกแสดงเฉพาะ :

  • 101
    Guest
  • 27 ก.พ.2548,02:42น.
    ข้อความ  
    
    Artist : พอส (Pause)
    อัลบั้ม : Mild
    Intro : D/G/D/G
    D Bm G
    จะอยู่ห่างไกลสักเท่าไร สิ่งหนึ่งที่ยึดในใจอยู่
    A D Bm
    ผูกไว้ไม่ให้เราห่างกัน คือความห่วงใยที่เธอให้ฉัน
    G A
    คำพูดเหล่านั้น ที่เธอคอยส่งมา
    Bm BmMaj7
    * ให้ฉันได้รับรู้ ให้ฉันนั้นได้มั่นใจ
    Bm7 Bm6
    ไม่มีสิ่งไหนที่จะลึกซึ้งถึงคุณค่า
    Em7 F#m
    ผ่านมาจากถ้อยคำนั้น ผ่านมาจากสายตาฉัน
    G A
    และสิ่งๆ นั้น บอกฉันให้รู้ตลอดมา

    D Bm
    ** ฉันและเธอจะเดินไปด้วยกัน
    G
    ไม่ว่าจะทุกข์หรือว่าจะสุขสันต์
    A D Bm
    ฉันจะมีเธอข้างกาย วันเวลาจะนานสักเพียงไหน
    G
    เพื่อนฉันคนนี้ นั้นไม่มีวันห่าง
    A D
    และไม่มีวันจากไปไหน

    Instru : D/Bm/G/A7

    D Bm G
    ในวันที่ฉันไม่มีใคร เปิดอ่านข้อความเก่าๆ
    A
    ที่มีความหมายจากวันนั้น
    D Bm
    คือความห่วงใยที่เธอให้ฉัน
    G A
    ข้อความเหล่านั้น ที่เธอคอยส่งมา

    ซ้ำ( *, ** )

    Instru : D/Bm/G/A (2 times)

    ซ้ำ( *, ** )

    Instru : D/Bm/G/A ( 2 times 'till fade )


  • 101
    Guest
  • 27 ก.พ.2548,02:42น.
    ข้อความ  
    Artist : พอส (Pause)
    อัลบั้ม : Mild
    Intro : D/G/D/G
    D Bm G
    จะอยู่ห่างไกลสักเท่าไร สิ่งหนึ่งที่ยึดในใจอยู่
    A D Bm
    ผูกไว้ไม่ให้เราห่างกัน คือความห่วงใยที่เธอให้ฉัน
    G A
    คำพูดเหล่านั้น ที่เธอคอยส่งมา
    Bm BmMaj7
    * ให้ฉันได้รับรู้ ให้ฉันนั้นได้มั่นใจ
    Bm7 Bm6
    ไม่มีสิ่งไหนที่จะลึกซึ้งถึงคุณค่า
    Em7 F#m
    ผ่านมาจากถ้อยคำนั้น ผ่านมาจากสายตาฉัน
    G A
    และสิ่งๆ นั้น บอกฉันให้รู้ตลอดมา

    D Bm
    ** ฉันและเธอจะเดินไปด้วยกัน
    G
    ไม่ว่าจะทุกข์หรือว่าจะสุขสันต์
    A D Bm
    ฉันจะมีเธอข้างกาย วันเวลาจะนานสักเพียงไหน
    G
    เพื่อนฉันคนนี้ นั้นไม่มีวันห่าง
    A D
    และไม่มีวันจากไปไหน

    Instru : D/Bm/G/A7

    D Bm G
    ในวันที่ฉันไม่มีใคร เปิดอ่านข้อความเก่าๆ
    A
    ที่มีความหมายจากวันนั้น
    D Bm
    คือความห่วงใยที่เธอให้ฉัน
    G A
    ข้อความเหล่านั้น ที่เธอคอยส่งมา

    ซ้ำ( *, ** )

    Instru : D/Bm/G/A (2 times)

    ซ้ำ( *, ** )

    Instru : D/Bm/G/A ( 2 times 'till fade )


  • tao
    Guest
  • 21 ม.ค.2549,11:00น.
    solo เบส  ข้อความ#Pause

    G|----------7---7-6----------------------------------------------------
    D|-------7------------7-9--9h11-9---11-12-----------------------
    A|--5----------------------9---------------------10--10---12--12--
    E|---------------------------------------------------10--------12------
  • คนแกะเพลง
    Guest
  • 7 ก.ค.2550,00:08น.

    e---------------------0---------------------------0-----------------
    G----------3--2--3-----3-------------3--2--3-----3-------------
    B------2-------------------2------2---------------------2---------
    D--0---------------------------0-----------------------------------
    A--------------------------------------------------------------------
    E--------------------------------------------------------------------

    e-----------3-------3------------------3-------------3-------------------
    G--------------0-------0------------------0-------------0--------------------
    B-------0------------------0-------0-------------------------------------------
    D---------------------------------------------------------------------------
    A---------------------------------------------------2------------------------------
    E----3-------------------------3--------------------------------------------------


    ผมลองเล่นตามคอร์ดดูนะไม่รุว่าใช้ได้ป่าว ยังไงก็ลองดูนะ
    ช่วยๆกันแกะท่อนที่เล่นหน่อยระกาน
  • Littlekung
    Guest
  • 13 ก.พ.2551,21:21น.


    E--------------------------------------------------------------------------------------------------------
    B----------------------2--3--2-----------------------2--3---2---------------------------------
    G------------2---2--------------3-----------2---2----------------3---------------------------
    D-------4-------------------------------4-------------------------------------------------------------
    A----5------------------------------5--------------------------------------------------------------------
    E-----------------------------------------------------------------------------------------------------

    E-----------3-------3------------------3-------------3-------------------
    B--------------0-------0------------------0-------------0--------------------
    G-------0------------------0-------0-------------------------------------------
    D---------------------------------------------------------------------------
    A---------------------------------------------------2------------------------------
    E----3-------------------------3--------------------------------------------------

    ปามานเนี้ย แหะๆ

1

ขอเชิญร่วมแสดงความคิดเห็นครับ

คลิกที่รูป เพื่อแทรกรูปลงในข้อความ
  • Member :
    username
    password
  • Not a member :
    name
    email