Loading

คอร์ดเพลง คนหลงทาง

บิ๊กแอส (Big Ass)

อัพโหลดคลิปเพลงนี้ที่คุณ ร้อง/เล่น ด้วยตัวคุณเอง ได้แล้ววันนี้
ระหว่างการทดสอบระบบหากพบข้อผิดพลาด กรุณาแจ้งที่นี่
Print

เพลง : คนหลงทาง

ศิลปิน : Big Ass

อัลบั้ม : Begin


ขอบคุณอีกครั้ง ขอบคุณอีกที

ขอบคุณในความหวังดี ที่มีให้คนที่มืดมัว

แต่มันคงไม่คุ้ม เข้าใจใช่ไหม

ออกจากชีวิตฉันไป ไม่อยากให้เธอถลำตัว


* คนอย่างฉันไม่ดีอย่างใครใคร

หลงทางมาไกลจนน่ากลัว

ทางเดินวันนี้ไม่มีสิทธิ์กลับตัว


** อย่าฝากชีวิตดีดีไว้ที่ฉัน

อย่าเอาความฝันของเธอมาเสี่ยงรู้ไหม

เก็บเอาชีวิตของเธอเดินออกไปให้ไกล

ไม่อยากทำร้ายคนดีอย่างเธอ


มีแต่ความรัก มีแต่ความฝัน

นั่นมันคงไม่สำคัญ เมื่อมันไม่ใช่ชีวิตจริง


(ซ้ำ *,**)


ไม่ใช่ไม่รักกก ไม่อยากทำร้ายคนดีอย่างเธอ


http://www.musicatm.com/thai/คอร์ดเพลง-คนหลงทาง-บิ๊กแอส-(Big-Ass)-7143.html
ดาวน์โหลด Full Song
กด *424243078536584
กด *424243078536584
ดาวน์โหลด Truetone
กด *424218078536584
กด *424218078536584
กด *424218078536584
ดาวน์โหลด Poly
กด *424214078536584
กด *424214078536584
กด *424214078536584
ดาวน์โหลด Mono
กด *424211078536584
กด *424211078536584
กด *424211078536584
* อัตราค่าบริการดาวน์โหลด Fullsong, Truetone, Poly, Mono : 35 บาท/เพลง
ส่งเพลงนี้ให้เพื่อน
วันที่โพสต์ : 6 พ.ย.2549,05:19น. 58.9.113.158
จำนวนผู้ชม : 307570 คน / แสดงความคิดเห็น : 275 ครั้ง
โพสต์โดย


จาก: อาร์ต
เข้าร่วม: 9 ปีก่อน
เพลง: 0
โพสต์: 3
เพลงแนะนำ
เพลงฮิต
เลือกแสดงเฉพาะ :

  • ต้อม จักรกฤษ
    Guest
  • 14 พ.ย.2549,22:06น.
    คนหลงทาง
    
    ศิลปิน : บิ๊กแอส (Big Ass)
    เพลง : คนหลงทาง
    ศิลปิน : Big Ass
    อัลบั้ม : Begin
    //

    G Em
    ขอบคุณอีกครั้ง ขอบคุณอีกที
    C Cm
    ขอบคุณในความหวังดี ที่มีให้คนที่มืดมัว
    G Em
    แต่มันคงไม่คุ้ม เข้าใจใช่ไหม
    C Cm
    ออกจากชีวิตฉันไป ไม่อยากให้เธอถลำตัว

    C D
    * คนอย่างฉันไม่ดีอย่างใครใคร
    G Em
    หลงทางมาไกลจนน่ากลัว
    C D
    ทางเดินวันนี้ไม่มีสิทธิ์กลับตัว

    G C
    ** อย่าฝากชีวิตดีดีไว้ที่ฉัน
    Am G
    อย่าเอาความฝันของเธอมาเสี่ยงรู้ไหม
    G C
    เก็บเอาชีวิตของเธอเดินออกไปให้ไกล
    Am D G
    ไม่อยากทำร้ายคนดีอย่างเธอ

    G Em
    มีแต่ความรัก มีแต่ความฝัน
    C Cm
    นั่นมันคงไม่สำคัญ เมื่อมันไม่ใช่ชีวิตจริง

    (ซ้ำ *,**)
    Am C Am D G
    ไม่ใช่ไม่รักกก ไม่อยากทำร้ายคนดีอย่างเธอ

  • ต้อม จักรกฤษ
    Guest
  • 14 พ.ย.2549,22:06น.
    คนหลงทาง
    ศิลปิน : บิ๊กแอส (Big Ass)
    เพลง : คนหลงทาง
    ศิลปิน : Big Ass
    อัลบั้ม : Begin
    //

    G Em
    ขอบคุณอีกครั้ง ขอบคุณอีกที
    C Cm
    ขอบคุณในความหวังดี ที่มีให้คนที่มืดมัว
    G Em
    แต่มันคงไม่คุ้ม เข้าใจใช่ไหม
    C Cm
    ออกจากชีวิตฉันไป ไม่อยากให้เธอถลำตัว

    C D
    * คนอย่างฉันไม่ดีอย่างใครใคร
    G Em
    หลงทางมาไกลจนน่ากลัว
    C D
    ทางเดินวันนี้ไม่มีสิทธิ์กลับตัว

    G C
    ** อย่าฝากชีวิตดีดีไว้ที่ฉัน
    Am G
    อย่าเอาความฝันของเธอมาเสี่ยงรู้ไหม
    G C
    เก็บเอาชีวิตของเธอเดินออกไปให้ไกล
    Am D G
    ไม่อยากทำร้ายคนดีอย่างเธอ

    G Em
    มีแต่ความรัก มีแต่ความฝัน
    C Cm
    นั่นมันคงไม่สำคัญ เมื่อมันไม่ใช่ชีวิตจริง

    (ซ้ำ *,**)
    Am C Am D G
    ไม่ใช่ไม่รักกก ไม่อยากทำร้ายคนดีอย่างเธอ

  • pk13
    Guest
  • 14 พ.ย.2549,22:53น.
    ศิลปิน : บิ๊กแอส (Big Ass)
    เพลง : คนหลงทาง
    ศิลปิน : Big Ass
    อัลบั้ม : Begin
    Csus2/C/ Csus2/ Am / F / Fm / 2 time
    C Csus2
    ขอบคุณอีกครั้ง ขอบคุณอีกที
    Am F
    ขอบคุณในความหวังดี ที่มีให้คนที่มืดมัว
    C Csus2
    แต่มันคงไม่คุ้ม เข้าใจใช่ไหม
    Am F
    ออกจากชีวิตฉันไป ไม่อยากให้เธอถลำตัว
    Dm G
    * คนอย่างฉันไม่ดีอย่างใครใคร
    C Csus2 Am
    หลงทางมาไกลจนน่ากลัว
    F G
    ทางเดินวันนี้ไม่มีสิทธิ์กลับตัว
    C F
    ** อย่าฝากชีวิตดีดีไว้ที่ฉัน
    G C
    อย่าเอาความฝันของเธอมาเสี่ยงรู้ไหม
    Am Dm
    เก็บเอาชีวิตของเธอเดินออกไปให้ไกล
    G C
    ไม่อยากทำร้ายคนดีอย่างเธอ
    Solo /C/ Csus2/ Am / F
    C Csus2
    มีแต่ความรัก มีแต่ความฝัน
    F Fm
    แต่มันคงไม่สำคัญ เมื่อมันไม่ใช่ชีวิตจริง
    (ซ้ำ *,**)
    Dm F G C / C
    ไม่ใช่ไม่รัก ไม่อยากทำร้ายคนดีอย่างเธอ



  • ลุลจิ
    Guest
  • 25 พ.ย.2549,12:45น.
    Solo    ท่อนHook
    อย่าฝากชีวิตดีดีไว้ที่ฉัน
    4.)--------------------/9--/12---10-9h10---------------------------------
    5.)-----------------------------------------------10---------------------------
    อย่าเอาความฝันของเธอมาเสี่ยงรู้ไหม
    4.)------------------------------------/9---/12---10-9h10---------------
    5.)-----------------------------------------------------------------7----------
    เก็บเอาชีวิตของเธอเดินออกไปให้ไกล
    4.)----------------------------------/9--/12---10-9h10------------------
    5.)--------------------------------------------------------------10-----------
    /=Slide
    h=Hammer On

  • raakzai
    Guest
  • 30 พ.ย.2549,11:27น.
    ผมว่าอย่างงี้เพราะกว่าน่ะ...
    ศิลปิน : บิ๊กแอส (Big Ass)
    เพลง : คนหลงทาง
    ศิลปิน : Big Ass
    อัลบั้ม : Begin
    /Csus2/ Cmaj7/ Am / F / Fm / 2 time
    Csus2 Cmaj7
    ขอบคุณอีกครั้ง ขอบคุณอีกที
    F Fm
    ขอบคุณในความหวังดี ที่มีให้คนที่มืดมัว
    Csus2 Cmaj7
    แต่มันคงไม่คุ้ม เข้าใจใช่ไหม
    F Fm
    ออกจากชีวิตฉันไป ไม่อยากให้เธอถลำตัว
    Dm G
    * คนอย่างฉันไม่ดีอย่างใครใคร
    Csus2 Cmaj7 Am
    หลงทางมาไกลจนน่ากลัว
    F G
    ทางเดินวันนี้ไม่มีสิทธิ์กลับตัว
    Csus2 F
    ** อย่าฝากชีวิตดีดีไว้ที่ฉัน
    G Csus2
    อย่าเอาความฝันของเธอมาเสี่ยงรู้ไหม
    Am Dm
    เก็บเอาชีวิตของเธอเดินออกไปให้ไกล
    G Csus2
    ไม่อยากทำร้ายคนดีอย่างเธอ
    Solo / Csus2/cmaj7/ Am / F
    Csus2 Cmaj7
    มีแต่ความรัก มีแต่ความฝัน
    F Fm
    แต่มันคงไม่สำคัญ เมื่อมันไม่ใช่ชีวิตจริง
    (ซ้ำ *,**)
    Dm F G Csus2
    ไม่ใช่ไม่รัก ไม่อยากทำร้ายคนดีอย่างเธอ
  • มือกีต้าร์ Pensive
    Guest
  • 1 ธ.ค.2549,03:08น.
    เพลงนี้ก่อนจะเล่น ดรอปสายลงหนึ่งเสียงครึ่ง
    สาย 1 C#
    2 G#
    3 E
    4 B
    5 F#
    6 B คอร์ต Intro : D
    C#-|------------------------|-----------------------------
    G#-|------------------------|----------------------------- D Dmaj9
    E -|--7---9---11--14---|-----6----7----9---11----- E--l---7 E--l---6
    B -|------------------------|----------------------------- B--l---7 B--l---7
    F# -|--5---7---9---12----|----4----5----7----9------ F#-l---5 F#-l---4
    B -|------------------------|----------------------------- B--l---0 B--l---0


    C#-|------------------------------------------------------------
    G#-|------------------------------------------------------------ Bm G
    E -|--7---9---11--14--------12----14----15----14----- E--l---4-- E--l----7
    B -|------------------------------------------------------------ B--l---4-- B--l----5
    F# -|--5---7---9---12--------10----12----13----12------ F#-l---2-- F#-l----5
    B -|------------------------------------------------------------ B--l---0-- B--l----5


    C#-|------------------------|------------------------------------
    G#-|------------------------|------------------------------------
    E -|--7---9---11--14---|-----6----7----9---11------------
    B -|------------------------|------------------------------------
    F# -|--5---7---9---12----|----4----5----7----9-------------
    B -|------------------------|------------------------------------


    C#-|--------------------------------------------------------------
    G#-|---------------------------------------------------------------
    E -|--7---9---11--14--------12----11----9-----6-----5----
    B -|---------------------------------------------------------------
    F# -|--5---7---9---12--------10-----9-----7-----4------7---
    B -|--------------------------------------------------------------

    ศิลปิน : บิ๊กแอส (Big Ass) D C#-l------5------- Dmaj9 C#-l-----5----
    เพลง : คนหลงทาง G#-l------5------- G#-l-----5----
    ศิลปิน : Big Ass E--l-------7------ E--l-----6----
    อัลบั้ม : Begin B--l-------7------ B--l-----7----
    D/Dmaj9/Bm/G(2 times) F#-l------5------- F#-l-----5----
    B--l--------------- B--l-----------
    D Dmaj9
    ขอบคุณอีกครั้ง ขอบคุณอีกที
    G Gm
    ขอบคุณในความหวังดี ที่มีให้คนที่มืดมัว
    D Dmaj9
    แต่มันคงไม่คุ้ม เข้าใจใช่ไหม
    G Gm
    ออกจากชีวิตฉันไป ไม่อยากให้เธอถลำตัว

    Em A
    * คนอย่างฉันไม่ดีอย่างใครใคร
    D Dmaj9 Bm
    หลงทางมาไกลจนน่ากลัว
    G A
    ทางเดินวันนี้ไม่มีสิทธิ์กลับตัว

    D G
    ** อย่าฝากชีวิตดีดีไว้ที่ฉัน
    A D
    อย่าเอาความฝันของเธอมาเสี่ยงรู้ไหม
    Bm Em
    เก็บเอาชีวิตของเธอเดินออกไปให้ไกล
    A D
    ไม่อยากทำร้ายคนดีอย่างเธอ
    Intru : D/Dmaj9/Bm/G
    D Dmaj9
    มีแต่ความรัก มีแต่ความฝัน
    G Gm
    แต่มันคงไม่สำคัญ เมื่อมันไม่ใช่ชีวิตจริง

    (ซ้ำ *,**)
    D
    Em G A D
    ไม่ใช่ไม่รัก ไม่อยากทำร้ายคนดีอย่างเธอ

    D

  • มือกีต้าร์ Pensive
    Guest
  • 1 ธ.ค.2549,04:01น.
    เพลงนี้ก่อนจะเล่น ดรอปสายลงหนึ่งเสียงครึ่ง
    สาย 1 C#
    2 G#
    3 E
    4 B
    5 F#
    6 B คอร์ต Intro : D/Dmaj9/Bm/G
    C#-|------------------------|-----------------------------
    G#-|------------------------|----------------------------- D Dmaj9
    E -|--7---9---11--14---|-----6----7----9---11----- E--l---7 E--l---6
    B -|------------------------|----------------------------- B--l---7 B--l---7
    F# -|--5---7---9---12----|----4----5----7----9------ F#-l---5 F#-l---4
    B -|------------------------|----------------------------- B--l---0 B--l---0


    C#-|------------------------------------------------------------
    G#-|------------------------------------------------------------ Bm G
    E -|--7---9---11--14--------12----14----15----14----- E--l---4-- E--l----7
    B -|------------------------------------------------------------ B--l---4-- B--l----5
    F# -|--5---7---9---12--------10----12----13----12------ F#-l---2-- F#-l----5
    B -|------------------------------------------------------------ B--l---0-- B--l----5


    C#-|------------------------|------------------------------------
    G#-|------------------------|------------------------------------
    E -|--7---9---11--14---|-----6----7----9---11------------
    B -|------------------------|------------------------------------
    F# -|--5---7---9---12----|----4----5----7----9-------------
    B -|------------------------|------------------------------------


    C#-|--------------------------------------------------------------
    G#-|---------------------------------------------------------------
    E -|--7---9---11--14--------12----11----9-----6-----5----
    B -|---------------------------------------------------------------
    F# -|--5---7---9---12--------10-----9-----7-----4------7---
    B -|--------------------------------------------------------------
    D Dmaj9
    ศิลปิน : บิ๊กแอส (Big Ass) C#-l------5------- C#-l-----5----
    เพลง : คนหลงทาง G#-l------5------- G#-l-----5----
    ศิลปิน : Big Ass E--l-------7------ E--l-----6----
    อัลบั้ม : Begin B--l-------7------ B--l-----7----
    D/Dmaj9/Bm/G(2 times) F#-l------5------- F#-l-----5----
    B--l--------------- B--l-----------
    D Dmaj9
    ขอบคุณอีกครั้ง ขอบคุณอีกที
    G Gm
    ขอบคุณในความหวังดี ที่มีให้คนที่มืดมัว
    D Dmaj9
    แต่มันคงไม่คุ้ม เข้าใจใช่ไหม
    G Gm
    ออกจากชีวิตฉันไป ไม่อยากให้เธอถลำตัว

    Em A
    * คนอย่างฉันไม่ดีอย่างใครใคร
    D Dmaj9 Bm
    หลงทางมาไกลจนน่ากลัว
    G A
    ทางเดินวันนี้ไม่มีสิทธิ์กลับตัว

    D G
    ** อย่าฝากชีวิตดีดีไว้ที่ฉัน
    A D
    อย่าเอาความฝันของเธอมาเสี่ยงรู้ไหม
    Bm Em
    เก็บเอาชีวิตของเธอเดินออกไปให้ไกล
    A D
    ไม่อยากทำร้ายคนดีอย่างเธอ
    Intru : D/Dmaj9/Bm/G

    C#-|------------------------|------------------------------------
    G#-|------------------------|------------------------------------
    E -|--7---9---11--14---|-----6----7----9---11------------
    B -|------------------------|------------------------------------
    F# -|--5---7---9---12----|----4----5----7----9-------------
    B -|------------------------|------------------------------------


    C#-|---------------------------------------------------------------
    G#-|---------------------------------------------------------------
    E -|--7---9---11--14--------12----11----9-----6-----5----
    B -|---------------------------------------------------------------
    F# -|--5---7---9---12--------10-----9-----7-----4------7---
    B -|---------------------------------------------------------------

    D Dmaj9
    มีแต่ความรัก มีแต่ความฝัน
    G Gm
    แต่มันคงไม่สำคัญ เมื่อมันไม่ใช่ชีวิตจริง

    (ซ้ำ *,**)
    D
    Em G A D
    ไม่ใช่ไม่รัก ไม่อยากทำร้ายคนดีอย่างเธอ

    Intru : D




    ทำมาอันที่แล้วลืมไปบางท่อน เลยมาเพิ่มเติมนิดหน่อย
    ยังมีรายละเอียดอีก นิดหน่อยเดียว เดียวว่างจามาเพิ่มเติมให้อี
  • มือกีต้าร์ Pensive
    Guest
  • 1 ธ.ค.2549,04:05น.
    เพลงนี้ก่อนจะเล่น ดรอปสายลงหนึ่งเสียงครึ่ง
    สาย 1 C#
    2 G#
    3 E
    4 B
    5 F#
    6 B คอร์ต Intro : D/Dmaj9/Bm/G
    C#-|------------------------|-----------------------------
    G#-|------------------------|----------------------------- D Dmaj9
    E -|--7---9---11--14---|-----6----7----9---11----- E--l---7 E--l---6
    B -|------------------------|----------------------------- B--l---7 B--l---7
    F# -|--5---7---9---12----|----4----5----7----9------ F#-l---5 F#-l---4
    B -|------------------------|----------------------------- B--l---0 B--l---0


    C#-|------------------------------------------------------------
    G#-|------------------------------------------------------------ Bm G
    E -|--7---9---11--14--------12----14----15----14----- E--l---4-- E--l----7
    B -|------------------------------------------------------------ B--l---4-- B--l----5
    F# -|--5---7---9---12--------10----12----13----12------ F#-l---2-- F#-l----5
    B -|------------------------------------------------------------ B--l---0-- B--l----5


    C#-|------------------------|------------------------------------
    G#-|------------------------|------------------------------------
    E -|--7---9---11--14---|-----6----7----9---11------------
    B -|------------------------|------------------------------------
    F# -|--5---7---9---12----|----4----5----7----9-------------
    B -|------------------------|------------------------------------


    C#-|--------------------------------------------------------------
    G#-|---------------------------------------------------------------
    E -|--7---9---11--14--------12----11----9-----6------7---
    B -|---------------------------------------------------------------
    F# -|--5---7---9---12--------10-----9-----7-----4------5---
    B -|--------------------------------------------------------------
    D Dmaj9
    ศิลปิน : บิ๊กแอส (Big Ass) C#-l------5------- C#-l-----5----
    เพลง : คนหลงทาง G#-l------5------- G#-l-----5----
    ศิลปิน : Big Ass E--l-------7------ E--l-----6----
    อัลบั้ม : Begin B--l-------7------ B--l-----7----
    D/Dmaj9/Bm/G(2 times) F#-l------5------- F#-l-----5----
    B--l--------------- B--l-----------
    D Dmaj9
    ขอบคุณอีกครั้ง ขอบคุณอีกที
    G Gm
    ขอบคุณในความหวังดี ที่มีให้คนที่มืดมัว
    D Dmaj9
    แต่มันคงไม่คุ้ม เข้าใจใช่ไหม
    G Gm
    ออกจากชีวิตฉันไป ไม่อยากให้เธอถลำตัว

    Em A
    * คนอย่างฉันไม่ดีอย่างใครใคร
    D Dmaj9 Bm
    หลงทางมาไกลจนน่ากลัว
    G A
    ทางเดินวันนี้ไม่มีสิทธิ์กลับตัว

    D G
    ** อย่าฝากชีวิตดีดีไว้ที่ฉัน
    A D
    อย่าเอาความฝันของเธอมาเสี่ยงรู้ไหม
    Bm Em
    เก็บเอาชีวิตของเธอเดินออกไปให้ไกล
    A D
    ไม่อยากทำร้ายคนดีอย่างเธอ
    Intru : D/Dmaj9/Bm/G

    C#-|------------------------|------------------------------------
    G#-|------------------------|------------------------------------
    E -|--7---9---11--14---|-----6----7----9---11------------
    B -|------------------------|------------------------------------
    F# -|--5---7---9---12----|----4----5----7----9-------------
    B -|------------------------|------------------------------------


    C#-|---------------------------------------------------------------
    G#-|---------------------------------------------------------------
    E -|--7---9---11--14--------12----11----9-----6------7---
    B -|---------------------------------------------------------------
    F# -|--5---7---9---12--------10-----9-----7-----4------5---
    B -|---------------------------------------------------------------

    D Dmaj9
    มีแต่ความรัก มีแต่ความฝัน
    G Gm
    แต่มันคงไม่สำคัญ เมื่อมันไม่ใช่ชีวิตจริง

    (ซ้ำ *,**)
    D
    Em G A D
    ไม่ใช่ไม่รัก ไม่อยากทำร้ายคนดีอย่างเธอ

    Intru : D




    ทำมาอันที่แล้วลืมไปบางท่อน เลยมาเพิ่มเติมนิดหน่อย
    ยังมีรายละเอียดอีก นิดหน่อยเดียว เดียวว่างจามาเพิ่มเติมให้อี

  • gaijr32
    Guest
  • 8 ธ.ค.2549,02:45น.
    1---?-?-------------------------------
    2----?-?-----------------------------

    ขอแทบด้วย
  • ไม่ปรากฎชื่อ
    Guest
  • 17 ธ.ค.2549,18:41น.
    คนหลงทาง
    เพลง : คนหลงทาง
    ศิลปิน : Big Ass

    intro /C/Cmaj7/Am/F Fm/
    /C/Cmaj7/Am/F /


    C Camj7

    ขอบคุณอีกครั้ง ขอบคุณอีกที

    F Fm

    ขอบคุณในความหวังดี ที่มีให้คนที่มืดมัว

    C Cmaj7

    แต่มันคงไม่คุ้ม เข้าใจใช่ไหม

    F Fm

    ออกจากชีวิตฉันไป ไม่อยากให้เธอถลำตัว

    Dm G

    * คนอย่างฉันไม่ดีอย่างใครใคร

    C G F

    หลงทางมาไกลจนน่ากลัว

    F G

    ทางเดินวันนี้ไม่มีสิทธิ์กลับตัว

    C F

    ** อย่าฝากชีวิตดีดีไว้ที่ฉัน

    G C

    อย่าเอาความฝันของเธอมาเสี่ยงรู้ไหม

    A Dm

    เก็บเอาชีวิตของเธอเดินออกไปให้ไกล

    G C

    ไม่อยากทำร้ายคนดีอย่างเธอ

    SoLo /C/Cmaj7/Am/F/


    C Cmaj7

    มีแต่ความรัก มีแต่ความฝัน

    F Fm

    แต่มันคงไม่สำคัญ เมื่อมันไม่ใช่ชีวิตจริง



    (ซ้ำ *,**)

    C Dm F G C

    ไม่ใช่ไม่รัก ไม่อยากทำร้ายคนดีอย่างเธอ


    จบ /C/C/


    ไม่แน่ใจว่าตรงรึป่าวนะ ลองเล่นดูนะครับ ผิดพลาดประการใด ติชมได้ เพิ่งหัดแกะคอร์ดอะครับ
  • vammpire
    Guest
  • 23 ธ.ค.2549,18:05น.
    Intro
    ดีด พาวเวอร์ คอร์ด C/D/E/G รอบสองเติม Bก่อนC ด้วยนะ โดย แทนที่เราจะจับนิ้วก้อยที่สาย4ไช่ป่ะ ก้อมาจับที่สาย3 แล้วสาย4 ปล่อยไว้ แล้วใช้นิ้วชี้ อุดเสียงไว้ ลองดูนะ
  • vammpire
    Guest
  • 23 ธ.ค.2549,18:11น.
    เรปบน พิมผิด ขออำไพ
    เอาเต็มๆเลยนะ ดีดตามไปเลยดูวิธีจับจากเรปบนเอาแล้วดีดอย่างละสองทีนะ
    C/D/E/G/B/C/D/E/C/D/E/G/F#/G/G# (2times)


    ค่อนข้างมั่นใจ เหมือนไม่เหมือนโพสต์แก้ไขไว้ด้วยละกัน จะเอาเพลงนี้ไปเล่นเพลงให้สาวฟัง เล่นงานโรงเรียน
  • แบงค์ วง Zad
    Guest
  • 26 ธ.ค.2549,15:58น.
    สำหรับคุณ Bank-Refresh นะครับถ้าไม่อยากดรอปสายก็เปลี่ยนคอร์ดดังนี้นะครับ

    ศิลปิน : บิ๊กแอส (Big Ass)
    เพลง : คนหลงทาง
    ศิลปิน : Big Ass
    อัลบั้ม : Begin
    Bsus2/B/ Bsus2/ G#m / E / Em / 2 time

    B Bsus2
    ขอบคุณอีกครั้ง ขอบคุณอีกที
    E Em
    ขอบคุณในความหวังดี ที่มีให้คนที่มืดมัว
    B Bsus2
    แต่มันคงไม่คุ้ม เข้าใจใช่ไหม
    E Em
    ออกจากชีวิตฉันไป ไม่อยากให้เธอถลำตัว
    C#m Fm
    * คนอย่างฉันไม่ดีอย่างใครใคร
    B Bsus2 G#m
    หลงทางมาไกลจนน่ากลัว
    E Fm
    ทางเดินวันนี้ไม่มีสิทธิ์กลับตัว
    B E
    ** อย่าฝากชีวิตดีดีไว้ที่ฉัน
    Fm B
    อย่าเอาความฝันของเธอมาเสี่ยงรู้ไหม
    G#m C#m
    เก็บเอาชีวิตของเธอเดินออกไปให้ไกล
    Fm B
    ไม่อยากทำร้ายคนดีอย่างเธอ
    Solo /B/ Bsus2/ G#m / E
    B Bsus2
    มีแต่ความรัก มีแต่ความฝัน
    E Em
    แต่มันคงไม่สำคัญ เมื่อมันไม่ใช่ชีวิตจริง
    (ซ้ำ *,**)
    C#m E Fm B / B
    ไม่ใช่ไม่รัก ไม่อยากทำร้ายคนดีอย่างเธอ


    intro ก็เปลี่ยนตามข้างล่างครับลดเสียงลงครึ่งเสียงก็จะเหมือนดรอปสายแล้วครับ
    E-|------------------------|---------------------------------------
    B-|------------------------|---------------------------------------
    G-|--4---6---8---11----|----3---4---6---8-------------------
    D-|------------------------|---------------------------------------
    A-|--2---4---6---9------|----1---2---4---6-------------------
    E-|------------------------|---------------------------------------


    E-|------------------------|---------------------------------------
    B-|------------------------|---------------------------------------
    G-|--4---6---8---11----|----9---11---12---11------------
    D-|------------------------|---------------------------------------
    A-|--2---4---6---9------|----7----9----10---9-------------
    E-|------------------------|---------------------------------------


    E-|------------------------|---------------------------------------
    B-|------------------------|---------------------------------------
    G-|--4---6---8---11----|----3---4---6---8-------------------
    D-|------------------------|---------------------------------------
    A-|--2---4---6---9------|----1---2---4---6-------------------
    E-|------------------------|---------------------------------------


    E-|------------------------|---------------------------------------
    B-|------------------------|---------------------------------------
    G-|--4---6---8---11----|----9---8---6---3-----4-------
    D-|------------------------|---------------------------------------
    A-|--2---4---6---9------|----7---6---4---1----2---------
    E-|------------------------|---------------------------------------

  • ลุจจิ
    Guest
  • 28 ธ.ค.2549,15:58น.
    Hook (แกะใหม่คับ)
    1.)----------------------------------------------------------------------------------------------
    2.)------15-13-12-----------------------------------13-12---------------------------------
    3.)-14-----------------14-16p14---12-------12------------14-12p14-----------------
    4.)---------------------------------------------------------------------------------14----------
    5.)----------------------------------------------------------------------------------------------
    6.)----------------------------------------------------------------------------------------------


    1.)---------------------------------------------------------------------------------------------
    2.)------15-13-12---------------------------------------------------------------------------
    3.)-14----------------14-16p14----12-----------------------------------------------------
    4.)----------------------------------------------------------------------------------------------
    5.)----------------------------------------------------------------------------------------------
    6.)----------------------------------------------------------------------------------------------

    ตอนที่pull off เล่นเร็วหน่อยน่ะ
  • หมูน้อย วง SNC Band
    Guest
  • 29 ธ.ค.2549,09:33น.
    คอร์นี้ครับชัวว์ 100%
    จากการดุโน๊ตแต่ละช่องแล้วเทียบเสียงทีละเฟรตคอร์ดนี้ครับ

    คนหลงทาง ศิลปิน : Big Ass
    Intro : Csus2/Em7/Am/G ( 2 ครั้ง )

    C G
    ขอบคุณอีกครั้ง ขอบคุณอีกที
    Dm Fm
    ขอบคุณในความหวังดี ที่มีให้คนที่มืดมัว
    C G
    แต่มันคงไม่คุ้ม เข้าใจใช่ไหม
    Dm F G
    ออกจากชีวิตฉันไป ไม่อยากให้เธอถลำตัว

    F G
    * คนอย่างฉันไม่ดีอย่างใครใคร
    C G Am
    หลงทางมาไกลจนน่ากลัว
    F G
    ทางเดินวันนี้ไม่มีสิทธิ์กลับตัว

    C F
    ** อย่าฝากชีวิตดีดีไว้ที่ฉัน
    Dm C
    อย่าเอาความฝันของเธอมาเสี่ยงรู้ไหม
    C F
    เก็บเอาชีวิตของเธอเดินออกไปให้ไกล
    Dm G C
    ไม่อยากทำร้ายคนดีอย่างเธอ

    Intro : Csus2/Em7/Am/G

    C G
    มีแต่ความรัก มีแต่ความฝัน
    Dm F G
    นั่นมันคงไม่สำคัญ เมื่อมันไม่ใช่ชีวิตจริง

    (ซ้ำ *,**)

    Dm F G C
    ไม่ใช่ไม่รักกก ไม่อยากทำร้ายคนดีอย่างเธอ



  • คนเพิ่งหัดแกะ
    Guest
  • 3 ม.ค.2550,20:41น.
    ขอบคุณในความหวังดี น่าจะเล่น คอร์ด F นะครับ ส่วนต่อจากนั้น เล่น Fm 
    แล้วก็ท่อนที่ว่า "คนอย่างฉันไม่ดี อย่างใครใคร " น่าจะเล่น Dm แล้วก็ G

    ลองเล่นดูนะครับ

    ปล.เพิ่งหัดแกะเพลงครับ
  • ปิง PING
    Guest
  • 4 ม.ค.2550,23:30น.
    ต้องเล่นงี้นะคับตอนแรกอะ
    C/D/E/G/B/C/D/E
    C/D/E/G/F/G/G#/G
    C/D/E/G/B/C/D/E
    C/D/E/G/F/E/D/B/C
    ไม่ได้เล่นแบบคอร์ดธรรมดานะเล่นแบบคู่8อะแบบเว้นเส้นนึงอะคงรู้กันนะ
    ----------------------------------------l
    --3--------------------------------------l
    ----------------------------------------l
    ---5-------------------------------------l
    ----------------------------------------l
    ----------------------------------------l
  • NLT
    Guest
  • 7 ม.ค.2550,21:01น.
    แกะเองนะ

    1l-------------------------------------------------------------------------------------------------------
    2l5--7--9--10^l-4--6--8--9^l5--7--9--10^l8--10--12--10----------------------------------
    3l-------------------------------------------------------------------------------------------------------


    ลองๆดูละกันมือใหม่หัดแกะแล้วก็เพิ่งเคยพิมพ์ในนี้เป็นครั้งแรกด้วย
    ถ้ายังไม่ดียังไงก็ลองเปลี่ยนเป็นเส้นอื่นดู หรือถ้าไม่ได้จริงๆอย่าว่ากันเลยนะครับเพิ่งหัดแกะ
  • KrItzA
    Guest
  • 17 ม.ค.2550,20:49น.
    ศิลปิน : บิ๊กแอส (Big Ass)
    เพลง : คนหลงทาง

    Intro : B\Bbm\G#m\E 2 time

    B Bsus2
    ขอบคุณอีกครั้ง ขอบคุณอีกที
    E Em
    ขอบคุณในความหวังดี ที่มีให้คนที่มืดมัว
    B Bsus2
    แต่มันคงไม่คุ้ม เข้าใจใช่ไหม
    E Em
    ออกจากชีวิตฉันไป ไม่อยากให้เธอถลำตัว

    C#m F#
    * คนอย่างฉันไม่ดีอย่างใครใคร
    B Bbm G#m F#
    หลงทางมาไกลจนน่ากลัว
    E F#
    ทางเดินวันนี้ไม่มีสิทธิ์กลับตัว

    B E
    ** อย่าฝากชีวิตดีดีไว้ที่ฉัน
    F# B
    อย่าเอาความฝันของเธอมาเสี่ยงรู้ไหม
    G#m C#m
    เก็บเอาชีวิตของเธอเดินออกไปให้ไกล
    F# B
    ไม่อยากทำร้ายคนดีอย่างเธอ

    Solo : B\Bbm\G#m\E 2 time

    B Bsus2
    มีแต่ความรัก มีแต่ความฝัน
    E Em
    แต่มันคงไม่สำคัญ เมื่อมันไม่ใช่ชีวิตจริง

    (ซ้ำ *,**)

    C#m E F# B / B
    ไม่ใช่ไม่รัก ไม่อยากทำร้ายคนดีอย่างเธอ

    แก้นิสนึงคับลืมๆๆๆ
  • ตั้ม
    Guest
  • 22 ม.ค.2550,13:32น.

    Big Ass เขาปรับสายกีตาร์ให้ต่ำกว่ามาตรฐาน ครึ่งเสียง คือ
    1---E 1---Eb
    2---B 2---Bb
    3---G 3---F#
    4---D 4---C#
    5---A 5---G#
    6---E 6---Eb
    STD. Big Ass

    เพลง คนหลงทาง จะเล่นใน คีย์ C
    ลองเล่นทั้งดรอปสาย และไม่ดรอปสายดูก็ได้ แล้วเปรียบเทียบเอาเองว่า กลิ่นมันจะผิดกันขนาดไหน
    ...แล้ว...มี ดรอป 1 เสียง ครึ่งด้วย...อะไรจะขนาดนั้น นี่ไม่ใช่เพลง Death Metal นะ]

    Intro :
    3-I--5--7--9--12----4--5--7--9----5--7--9--12----10--12--13--12--
    4-I-x----------------------------------------------------------------------------
    5-I--3--5--7--10----2--3--5--7----3--5--7--10-----8---10--11--10--

    3-I--5--7--9--12----4--5--7--9----5--7--9--12----10--9--7--4--5----
    4-I-x-----------------------------------------------------------------------------
    5-I--3--5--7--10----2--3--5--7----3--5--7--10-----8---7--5--2--3----



    คนอย่างฉัน ไม่ดีอย่างใครๆ หลงทางมาไกล จนน่ากลัว
    1-I--13--12---------------
    2-I-------------13^-10---

    ทางเดินวันนี้ไม่มีสิทธิ์ กลับตัว...
    2-I------------------------------------------------------------10-12-13--
    3-I----------------------------------9-10-9-----9-10-12----------------
    4-I-----------9-10-----9-10-12-----------12---------------------------
    5-I--10-12--------12-----------------------------------------------------

    อย่าฝากชีวิตดีๆ ไว้ที่ฉัน....
    2-I-------15--13--12--10-12-10------
    3-I--12-------------------------------12--

    อย่าเอาความฝันของเธอมาเสี่ยง รู้ไหม..
    2-I------13--12--10-8-10-8------------
    3-I--9----------------------------9---------

    เก็บเอาชีวิตของเธอเดินออกไปให้ไกล...
    2-I------10--8--6-5-6-5-----------------
    3-I--7-----------------------7--------------

    ไม่อยากทำร้ายคนดีอย่างเธอ.
    2-I-------------------------------------------15--15^--
    3-I--9--9--10-12-17-14---14-16-17--------------

    เวลาเล่นก็ใช้การสไลด์สายนะครับ "อย่าลืม"
    มันยังไม่เปะนะครับ เพราะว่ามันเป็นเสียงประสานกัน ฟังแล้วมันคลุมเครือ...
  • เรา
    Guest
  • 23 ม.ค.2550,17:03น.
    ศิลปิน : บิ๊กแอส (Big Ass)
    เพลง : คนหลงทาง
    ศิลปิน : Big Ass
    อัลบั้ม : Begin
    Csus2/Em7/Am/G

    C Em
    ขอบคุณอีกครั้ง ขอบคุณอีกที
    Am G
    ขอบคุณในความหวังดี ที่มีให้คนที่มืดมัว
    C Em
    แต่มันคงไม่คุ้ม เข้าใจใช่ไหม
    Am G
    ออกจากชีวิตฉันไป ไม่อยากให้เธอถลำตัว

    F Em
    * คนอย่างฉันไม่ดีอย่างใครใคร
    Dm G
    หลงทางมาไกลจนน่ากลัว
    F G
    ทางเดินวันนี้ไม่มีสิทธิ์กลับตัว

    C Am
    ** อย่าฝากชีวิตดีดีไว้ที่ฉัน
    Dm G
    อย่าเอาความฝันของเธอมาเสี่ยงรู้ไหม
    C Am
    เก็บเอาชีวิตของเธอเดินออกไปให้ไกล
    Dm G
    ไม่อยากทำร้ายคนดีอย่างเธอ

    C Em
    มีแต่ความรัก มีแต่ความฝัน
    Dm G
    นั่นมันคงไม่สำคัญ เมื่อมันไม่ใช่ชีวิตจริง

    (ซ้ำ *,**)
    C Am Dm G
    ไม่ใช่ไม่รักกก ไม่อยากทำร้ายคนดีอย่างเธอ
  • 555555
    Guest
  • 23 ม.ค.2550,18:45น.
    C                     EM
    ขอบคุณอีกครั้ง ขอบคุณอีกที

    AM Fm
    ขอบคุณในความหวังดี ที่มีให้คนที่มืดมัว

    C EM
    แต่มันคงไม่คุ้ม เข้าใจใช่ไหม

    AM FM
    ออกจากชีวิตฉันไป ไม่อยากให้เธอถลำตัว

    F EM
    * คนอย่างฉันไม่ดีอย่างใครใคร


    หลงทางมาไกลจนน่ากลัว


    ทางเดินวันนี้ไม่มีสิทธิ์กลับตัว
    C EM
    ** อย่าฝากชีวิตดีดีไว้ที่ฉัน

    DM FM
    อย่าเอาความฝันของเธอมาเสี่ยงรู้ไหม

    ชัว
  • Sd!12t
    Guest
  • 24 ม.ค.2550,21:06น.
    คนหลงทาง
    เพลง : คนหลงทาง
    ศิลปิน : Big Ass

    intro /C/Cmaj7/Am/F Fm/
    /C/Cmaj7/Am/F /


    C Camj7

    ขอบคุณอีกครั้ง ขอบคุณอีกที

    F Fm

    ขอบคุณในความหวังดี ที่มีให้คนที่มืดมัว

    C Cmaj7

    แต่มันคงไม่คุ้ม เข้าใจใช่ไหม

    F Fm

    ออกจากชีวิตฉันไป ไม่อยากให้เธอถลำตัว

    Dm G

    * คนอย่างฉันไม่ดีอย่างใครใคร

    C Em Am

    หลงทางมาไกลจนน่ากลัว

    F G

    ทางเดินวันนี้ไม่มีสิทธิ์กลับตัว

    C F

    ** อย่าฝากชีวิตดีดีไว้ที่ฉัน

    G C

    อย่าเอาความฝันของเธอมาเสี่ยงรู้ไหม

    A Dm

    เก็บเอาชีวิตของเธอเดินออกไปให้ไกล

    G C

    ไม่อยากทำร้ายคนดีอย่างเธอ

    SoLo /C/Cmaj7/Am/F/


    C Cmaj7

    มีแต่ความรัก มีแต่ความฝัน

    F Fm

    แต่มันคงไม่สำคัญ เมื่อมันไม่ใช่ชีวิตจริง



    (ซ้ำ *,**)

    C Dm F G C

    ไม่ใช่ไม่รัก ไม่อยากทำร้ายคนดีอย่างเธอ

    intro/C/C/
    ชัวร์กว่า คับ !!!
  • โอ๋ (ao_feedback)
    Guest
  • 28 ม.ค.2550,21:32น.
    มั่วกันจังทนไม่ไหว เอาอันนี้ไป แกะเองตามซีดีนะ ไม่ต้องดอปสาย เป็น Eb ตั้งสาย E ปกติเล่นได้เลย 

    คนหลงทาง - Big Ass


    Intro:B/Bb7/G#m/E/ (2 time)

    B
    ขอบคุณอีกครั้ง ขอบคุณอีกที
    E
    ขอบคุณในความหวังดี ที่มีให้คนที่มืดมัว
    B
    แต่มันคงไม่คุ้ม เข้าใจใช่ไหม
    E
    ออกจากชีวิตฉันไป ไม่อยากให้เธอถลำตัว

    C#m F#
    * คนอย่างฉันไม่ดีอย่างใครใคร
    B Bb7 G#m/F#
    หลงทางมาไกลจนน่ากลัว
    E F#
    ทางเดินวันนี้ไม่มีสิทธิ์กลับตัว

    B E
    ** อย่าฝากชีวิตดีดีไว้ที่ฉัน
    F# B
    อย่าเอาความฝันของเธอมาเสี่ยงรู้ไหม
    G#m C#m
    เก็บเอาชีวิตของเธอเดินออกไปให้ไกล
    F# B
    ไม่อยากทำร้ายคนดีอย่างเธอ

    Solo:B/Bb7/G#m/E/

    B Bb7
    มีแต่ความรัก มีแต่ความฝัน
    E
    แต่มันคงไม่สำคัญ เมื่อมันไม่ใช่ชีวิตจริง

    (ซ้ำ *,**)

    C#m E F# B
    ไม่ใช่ไม่รักกก ไม่อยากทำร้ายคนดีอย่างเธอ

  • t a m s a n s a i (ซาวด์ครีม)
    Guest
  • 31 ม.ค.2550,10:26น.
    คนหลงทาง
    เพลง : คนหลงทาง
    ศิลปิน : Big Ass

    intro /C/G/Am /F
    /C/G/Am/F


    C G

    ขอบคุณอีกครั้ง ขอบคุณอีกที

    F Fm

    ขอบคุณในความหวังดี ที่มีให้คนที่มืดมัว

    C G

    แต่มันคงไม่คุ้ม เข้าใจใช่ไหม

    F Fm

    ออกจากชีวิตฉันไป ไม่อยากให้เธอถลำตัว

    Dm G

    * คนอย่างฉันไม่ดีอย่างใครใคร

    C G Am

    หลงทางมาไกลจนน่ากลัว

    F G

    ทางเดินวันนี้ไม่มีสิทธิ์กลับตัว

    C F

    ** อย่าฝากชีวิตดีดีไว้ที่ฉัน

    G C

    อย่าเอาความฝันของเธอมาเสี่ยงรู้ไหม

    Am Dm

    เก็บเอาชีวิตของเธอเดินออกไปให้ไกล

    G C

    ไม่อยากทำร้ายคนดีอย่างเธอ

    SoLo /C/G/Am/F/


    C G

    มีแต่ความรัก มีแต่ความฝัน

    F Fm

    แต่มันคงไม่สำคัญ เมื่อมันไม่ใช่ชีวิตจริง



    (ซ้ำ *,**)

    Dm F G C

    ไม่ใช่ไม่รัก ไม่อยากทำร้ายคนดีอย่างเธอ

  • ฃ.ขวด
    Guest
  • 10 ก.พ.2550,14:12น.

    แก้
    c-/------------------------------------------------------
    s---/-/-//--//----/-------------------------------------
    t1----------/---------------/------------------------------
    t2--------------------------/------------------------------
    t3----------------------------------------------------------
    k-----------------p----p---------p-------------------------
    c1--------------------------------/--------------------------
    c2--------------------------------/---------------------------
    c3--------------------------------------------------------------


    คำอธบาย

    /=ตี1ครั้ง
    p=คือเยียบกระเดือก
    c=แฉ
    s=สะแน
    t1=กลอง1
    t2=กลอ2
    t3=กลอ3
    k=กระเดือก
    c1=ฉาบ(ซ้ายบน)
    c2=ฉาบ(ขวาบน)
    c3=ฉาบ(ขวาลาง)
    c4=ฉาบ(กลาง)
    //=ตีติดกัน เช่น ตุบๆ

    Csus2/Em7/Am/G
    Intro :
    3-I--5--7--9--12----4--5--7--9----5--7--9--12----10--12--13--12--
    4-I-x----------------------------------------------------------------------------
    5-I--3--5--7--10----2--3--5--7----3--5--7--10-----8---10--11--10--

    3-I--5--7--9--12----4--5--7--9----5--7--9--12----10--9--7--4--5----
    4-I-x-----------------------------------------------------------------------------
    5-I--3--5--7--10----2--3--5--7----3--5--7--10-----8---7--5--2--3----



    C G
    ขอบคุณอีกครั้ง ขอบคุณอีกที
    F G
    ขอบคุณในความหวังดี ที่มีให้คนที่มืดมัว
    C G
    แต่มันคงไม่คุ้ม เข้าใจใช่ไหม
    F G
    ออกจากชีวิตฉันไป ไม่อยากให้เธอถลำตัว

    F Em
    * คนอย่างฉันไม่ดีอย่างใครใคร
    F D
    หลงทางมาไกลจนน่ากลัว
    F G
    ทางเดินวันนี้ไม่มีสิทธิ์กลับตัว

    s---/-/-//--//----/-------------------------------------
    t1----------/---------------/------------------------------
    t2--------------------------/------------------------------
    t3----------------------------------------------------------
    k-----------------p----p---------p-------------------------
    c1--------------------------------/--------------------------
    c2--------------------------------/---------------------------
    c3--------------------------------------------------------------
    C F
    ** อย่าฝากชีวิตดีดีไว้ที่ฉัน
    Am C
    อย่าเอาความฝันของเธอมาเสี่ยงรู้ไหม
    F G
    เก็บเอาชีวิตของเธอเดินออกไปให้ไกล
    G C
    ไม่อยากทำร้ายคนดีอย่างเธอ
    Intro :
    3-I--5--7--9--12----4--5--7--9----5--7--9--12----10--9--7--4--5----
    4-I-x-----------------------------------------------------------------------------
    5-I--3--5--7--10----2--3--5--7----3--5--7--10-----8---7--5--2--3----


    C G
    มีแต่ความรัก มีแต่ความฝัน
    F G
    นั่นมันคงไม่สำคัญ เมื่อมันไม่ใช่ชีวิตจริง

    (ซ้ำ *,**)
    C Am G C
    ไม่ใช่ไม่รักกก ไม่อยากทำร้ายคนดีอย่างเธอ
  • ฃ.ขวด
    Guest
  • 14 ก.พ.2550,21:17น.

    แก้
    c-/------------------------------------------------------
    s---/-/-//--//----/-------------------------------------
    t1----------/---------------/------------------------------
    t2--------------------------/------------------------------
    t3----------------------------------------------------------
    k-----------------p----p---------p-------------------------
    c1--------------------------------/--------------------------
    c2--------------------------------/---------------------------
    c3--------------------------------------------------------------


    คำอธบาย

    /=ตี1ครั้ง
    p=คือเยียบกระเดือก
    c=hi-hat
    s=สะแน
    t1=กลอง1
    t2=กลอ2
    t3=กลอ3
    k=กระเดือก
    c1=ฉาบ(ซ้ายบน)
    c2=ฉาบ(ขวาบน)
    c3=ฉาบ(ขวาลาง)
    c4=ฉาบ(กลาง)
    //=ตีติดกัน เช่น ตุบๆ

    Csus2/Em7/Am/G
    Intro :
    3-I--5--7--9--12----4--5--7--9----5--7--9--12----10--12--13--12--
    4-I-x----------------------------------------------------------------------------
    5-I--3--5--7--10----2--3--5--7----3--5--7--10-----8---10--11--10--

    3-I--5--7--9--12----4--5--7--9----5--7--9--12----10--9--7--4--5----
    4-I-x-----------------------------------------------------------------------------
    5-I--3--5--7--10----2--3--5--7----3--5--7--10-----8---7--5--2--3----



    C G
    ขอบคุณอีกครั้ง ขอบคุณอีกที
    F G
    ขอบคุณในความหวังดี ที่มีให้คนที่มืดมัว
    C G
    แต่มันคงไม่คุ้ม เข้าใจใช่ไหม
    F G
    ออกจากชีวิตฉันไป ไม่อยากให้เธอถลำตัว

    F Em
    * คนอย่างฉันไม่ดีอย่างใครใคร
    F D
    หลงทางมาไกลจนน่ากลัว
    F G
    ทางเดินวันนี้ไม่มีสิทธิ์กลับตัว

    s---/-/-//--//----/-------------------------------------
    t1----------/---------------/------------------------------
    t2--------------------------/------------------------------
    t3----------------------------------------------------------
    k-----------------p----p---------p-------------------------
    c1--------------------------------/--------------------------
    c2--------------------------------/---------------------------
    c3--------------------------------------------------------------
    C F
    ** อย่าฝากชีวิตดีดีไว้ที่ฉัน
    Am C
    อย่าเอาความฝันของเธอมาเสี่ยงรู้ไหม
    F G
    เก็บเอาชีวิตของเธอเดินออกไปให้ไกล
    G C
    ไม่อยากทำร้ายคนดีอย่างเธอ
    Intro :
    3-I--5--7--9--12----4--5--7--9----5--7--9--12----10--9--7--4--5----
    4-I-x-----------------------------------------------------------------------------
    5-I--3--5--7--10----2--3--5--7----3--5--7--10-----8---7--5--2--3----


    C G
    มีแต่ความรัก มีแต่ความฝัน
    F G
    นั่นมันคงไม่สำคัญ เมื่อมันไม่ใช่ชีวิตจริง

    (ซ้ำ *,**)
    C Am G C
    ไม่ใช่ไม่รักกก ไม่อยากทำร้ายคนดีอย่างเธอ
  • หึหึ
    Guest
  • 22 ก.พ.2550,23:51น.
    ศิลปิน : บิ๊กแอส (Big Ass)
    เพลง : คนหลงทาง
    ศิลปิน : Big Ass
    อัลบั้ม : Begin
    /C/ Cmaj7/ Am / F / Fm / 2 time
    C Cmaj7
    ขอบคุณอีกครั้ง ขอบคุณอีกที
    F Fm
    ขอบคุณในความหวังดี ที่มีให้คนที่มืดมัว
    C Cmaj7
    แต่มันคงไม่คุ้ม เข้าใจใช่ไหม
    F Fm
    ออกจากชีวิตฉันไป ไม่อยากให้เธอถลำตัว
    Dm G
    * คนอย่างฉันไม่ดีอย่างใครใคร
    C Cmaj7 Am
    หลงทางมาไกลจนน่ากลัว
    F G
    ทางเดินวันนี้ไม่มีสิทธิ์กลับตัว
    C F
    ** อย่าฝากชีวิตดีดีไว้ที่ฉัน
    G C
    อย่าเอาความฝันของเธอมาเสี่ยงรู้ไหม
    Am Dm
    เก็บเอาชีวิตของเธอเดินออกไปให้ไกล
    G C
    ไม่อยากทำร้ายคนดีอย่างเธอ
    Solo /C/ Cmaj7/ Am / F
    C Cmaj7
    มีแต่ความรัก มีแต่ความฝัน
    F Fm
    แต่มันคงไม่สำคัญ เมื่อมันไม่ใช่ชีวิตจริง
    (ซ้ำ *,**)
    Dm F G C / C
    ไม่ใช่ไม่รัก ไม่อยากทำร้ายคนดีอย่างเธอ
  • ArtTis
    Guest
  • 9 มี.ค.2550,13:28น.
    C               Em
    ขอบคุณอีกครั้ง ขอบคุณอีกที
    F Fm
    ขอบคุณในความหวังดี ที่มีให้คนที่มืดมัว
    C Em
    แต่มันคงไม่คุ้ม เข้าใจใช่ไหม
    Am F
    ออกจากชีวิตฉันไป ไม่อยากให้เธอถลำตัว

    Dm G
    * คนอย่างฉันไม่ดีอย่างใครใคร
    C Em Am
    หลงทางมาไกลจนน่ากลัว
    F G
    ทางเดินวันนี้ไม่มีสิทธิ์กลับตัว

    C F
    ** อย่าฝากชีวิตดีดีไว้ที่ฉัน
    G C
    อย่าเอาความฝันของเธอมาเสี่ยงรู้ไหม
    Am Dm
    เก็บเอาชีวิตของเธอเดินออกไปให้ไกล
    G C
    ไม่อยากทำร้ายคนดีอย่างเธอ
    C Em
    มีแต่ความรัก มีแต่ความฝัน
    F Fm
    แต่มันคงไม่สำคัญ เมื่อมันไม่ใช่ชีวิตจริง

    (ซ้ำ *,**)
    Dm F G C
    ไม่ใช่ไม่รักกก ไม่อยากทำร้ายคนดีอย่างเธอ

    ลองดูนะครับเผื่อจะเข้า
  • บอส
    Guest
  • 9 มี.ค.2550,22:47น.

    เป็นไงกันมั้งครับ จาก เด็ก ชุมแสง ครับ

    2-I-------15--13--12--10-12-
    3-I--12----------------------------

    อย่าเอาความฝันของเธอมาเสี่ยง รู้ไหม..
    2-I------13--12--10-8-10-
    3-I--9-------------------------

    เก็บเอาชีวิตของเธอเดินออกไปให้ไกล...
    2-I------10--8--6-5-6-
    3-I--7-----------------------

    เป็นไงบอกมั้งนะครับ
  • Ray_Pam_love@hotmail.com
    Guest
  • 11 มี.ค.2550,18:38น.
    Big Ass

    Tune To Eb

    INTRO : /C/Cmaj7/Am/F Fm/
    /C/Cmaj7/Am/F/

    C Cmaj7
    ขอบคุณอีกครั้ง ขอบคุณอีกที

    F
    ขอบคุณในความหวังดี

    Fm
    ที่มีให้คนที่มืดมัว

    C Cmaj7
    แต่มันคงไม่คุ้ม เข้าใจใช่ไหม

    F
    ออกจากชีวิตฉันไป

    Fm
    ไม่อยากให้เธอถลำตัว

    Dm G
    * คนอย่างฉัน ไม่ดีอย่างใครๆ

    C G Am
    หลงทางมาไกล จนน่ากลัว

    G F G
    ่ ทางเดินวันนี้ ไม่มีสิทธิ์กลับตัว

    C F
    ** อย่าฝากชีวิตดีๆ ไว้ที่ฉัน

    G C
    อย่าเอาความฝันของเธอมาเสี่ยงรู้ไหม

    A Dm
    เก็บเอาชีวิตของเธอเดินออกไปให้ไกล

    G C
    ไม่อยากทำร้ายคนดีอย่างเธอ


    SOLO : /C/Cmaj7/Am/F/


    C Cmaj7
    มีแต่ความรัก มีแต่ความฝัน

    F
    แต่มันคงไม่สำคัญ

    Fm
    เมื่อมันไม่ใช่ชีวิตจริง


    (ซ้ำ * , **)


    C Dm
    ไม่ใช่ไม่รัก

    F G C
    ไม่อยากทำร้ายคนดีอย่างเธอ


    SOLO : /C/C/

ขอเชิญร่วมแสดงความคิดเห็นครับ

คลิกที่รูป เพื่อแทรกรูปลงในข้อความ
  • Member :
    username
    password
  • Not a member :
    name
    email