Loading

คอร์ดเพลง คนเจียมตัว

โซคูล (So Cool)

อัพโหลดคลิปเพลงนี้ที่คุณ ร้อง/เล่น ด้วยตัวคุณเอง ได้แล้ววันนี้
ระหว่างการทดสอบระบบหากพบข้อผิดพลาด กรุณาแจ้งที่นี่
เอื้อมไม่ถึง...รู้ตัวฉันดีว่าไกลห่าง
กลัวว่าเธอต้องลำบาก...ถ้าหากว่าเธอเลือกฉัน
ทุก ๆ วันต้องหลบหน้าเธอ
ทั้งที่ใจอยากเจอหน้ากัน
อยากจะคุยความในใจฉันที่มันรักเธอ...
ได้แต่เพ้อ...ละเมอว่ามีเธอเคียงข้าง
วอนให้เธอเห็นใจบ้าง...ก็อยากให้เธอรับไว้
ขอสักคนแค่เป็นเพื่อนคุย...แค่ในยามที่เธอเหงาใจ
ไม่ต้องตอบตกลงว่าจะรักกัน
*ฉันยินดีจะยอมเฝ้ารอ...ขอสัญญาจะไม่วุ่นวาย
แค่ให้รู้ว่าใจหมดใจมันรักเธอ...
**คนเจียมตัวก็ได้แต่...เจียมใจ
ทนทำใจได้แต่เฝ้ามอง...ดูเธอ
ฉันคงไม่มีสิทธิ์...จะคิดดังว่าฉันนั้นรักเธอ
ได้เต่เพ้อ...รักเธอข้างเดียว

(*,**)

ฉันยินดีจะยอมเฝ้ารอ ขอสัญญาจะไม่วุ่นวาย
แค่ให้รู้ว่าใจหมดใจมันรักเธอ...

ก็ได้แต่เจียมตัวอย่างนี้เพราะรักเธอ
ดาวน์โหลด Full Song
กด *424243004996584
กด *424243004996584
ดาวน์โหลด Truetone
กด *424218004996584
กด *424218004996584
กด *424218004996584
ดาวน์โหลด Poly
กด *424214004996584
กด *424214004996584
กด *424214004996584
ดาวน์โหลด Mono
กด *424211004996584
กด *424211004996584
กด *424211004996584
* อัตราค่าบริการดาวน์โหลด Fullsong, Truetone, Poly, Mono : 35 บาท/เพลง
ส่งเพลงนี้ให้เพื่อน
วันที่โพสต์ : 5 ก.พ.2547,12:44น.
จำนวนผู้ชม : 236319 คน / แสดงความคิดเห็น : 116 ครั้ง
โพสต์โดย


จาก: Pu
Guest
เพลงแนะนำ
เพลงฮิต
เลือกแสดงเฉพาะ :

  • ส่งไปที่
    Guest
  • 27 ก.พ.2547,17:50น.
    เพลงอื่นอีก 
    ((อัพเดทแหล่งทดลองฟัง))
  • unknow
    Guest
  • 29 ก.พ.2547,00:46น.

    Tap เพี้ยน ๆ แหะ เดี๋ยวแกะให้ดีกว่า

    ((อัพเดทคอร์ดกีต้าร์))
  • บิ๊กๆๆๆ สว.กพ.
    Guest
  • 29 ก.พ.2547,19:39น.
    พี่โจ๊ก รุ่น พี่ผม ปีเดียวอะ เขาเคยอยู่ จ่าการบุญ อะ ตอนนี้อยู่ จ่านร้องอะ ครับ ผม บิ๊ก 01-5342225 
    
    เดียวให้เขาสอนแล้วเอามาโชว์กัน
    ((อัพเดทแหล่งทดลองฟัง))
  • น้องโจ้แฟนปู
    Guest
  • 3 มี.ค.2547,07:50น.
    เพลงโครตไพเราะเลย   
    ((อัพเดทแหล่งทดลองฟัง))
  • คนหัดเล่นกีต้า
    Guest
  • 5 มี.ค.2547,14:20น.
      ขอบคุณครับ ผมชอบเว็บนี้มากเลยครับ ขอให้เว็บนี้อยู่คู่คนไทยตลอดไป ผมจะเป็นกําลังใจให้พี่ๆทีมงานทุกคนเลยครับ
    ((อัพเดทคอร์ดกีต้าร์)) ((ขอคอร์ดกีต้าร์))
  • unknow
    Guest
  • 5 มี.ค.2547,15:50น.
    ถ้าชอบเว็บนี้ ช่วยบอกต่อเพื่อนๆด้วยนะครับ
    
    ((อัพเดทคอร์ดกีต้าร์))
  • bEcKgAmE
    Guest
  • 12 มี.ค.2547,09:18น.
    ของแท้แน่นอนคับ แกะเองกับมือเลย ไม่เหมือนมาเอาหัวเลย 
    

    Tab คนเจียมตัว


    INTRO :

    2-----------8h1010^12---10^12---10^12---10^12---10---77h8------
    3---7h9----------------------------------------------------

    2-----------8/1212/1312888/10---8
    3---7h9----------------------------------------------------



    PRE HOOK :*ฉันยินดีจะยอมเฝ้ารอ...ขอสัญญาจะไม่วุ่นวาย
    แค่ให้รู้ว่าใจหมดใจมันรักเธอ...

    2---------7h8p7-----------9h10p9------------5h7--7---8---8/10--8-
    3---5/7--------------7/9-----------------5/7-------------------------------

    5---5---3---2--------
    6----------------5---3



    SOLO :

    3 2/4----4/7---7----5----4h5p4----------5/7--7
    4 --------------------------------------5--7------

    3 --4h5p4--------------------------------------------------7/9---7------
    4 ----------7--5----7/9---9---9-----7--5--77/9-------------

    3 --5--4--5--7-----------7--------------
    4 ------------------5--5-------5/7--5--5--

    2-----------------------------------8/10---8--------
    3----------------------------7-----------
    4 --------------57/9------------
    5 --5---7-----------

    1----------------------------------------------------------17^19---15----------
    2---------8--8--------8/10-----------12---15---17------------
    3 7/9-----------9----------------



    LAST HOOK :คนเจียมตัวก็ได้แต่...เจียมใจ....

    1-------14^15---14^15-----------------14---14-------------------------------------------
    14h15p14----------
    2---12------------------------12---10-----------------12--12h13p12-------------------------------------15----
    3--------------------------------------------------------------------------------14---12-------

    1-------------------------------------------------------------------------------------------------------------------
    2---10--1212/13---12h13p12---8---8--7--88/10--8-------812/13--12--88^10---8-----
    3-----------------------------------------------------------------------9------------



    OUTRO :

    2----10^12---10^12---10^12---10^12---10---77h8------

    1---------10--8--7-------------------------------------------------------------
    2-----------------------8---------------10^12---10----10^12-----8--------
    3---9------------------------7/9------------------------------------------------
    ((อัพเดทคอร์ดกีต้าร์))
  • Socool
    Guest
  • 12 มี.ค.2547,13:20น.
    ใครก็ได้สอนแกะเพลง อย่างถูกต้องลีดด้วยน่ะครับ      
    ((อัพเดทคอร์ดกีต้าร์)) ((ขอคอร์ดกีต้าร์))
  • bEcKgAmE
    Guest
  • 12 มี.ค.2547,17:38น.
    10^12 
    

    ^ ที่ผมลงคือการดันสายคับ ดันสายจากเฟร็ต 10 ไปเป็นเสียงเฟร็ต 12 ดันขึ้นไป 1 เสียงอะคับ รวมทั้งอันอื่นๆด้วยนะคับ ผมก็ไม่รุว่าสัญลักษณ์มันเปนไง แต่ว่ามันคือการเล่นดันสายอะคับ
    ((อัพเดทคอร์ดกีต้าร์))
  • กอล์ฟ
    Guest
  • 12 มี.ค.2547,21:59น.
    อ่าน tep โซโล่เข้าจัยแล้ว แต่ยังม่ายคล่องเลย 
    ((อัพเดทคอร์ดกีต้าร์))
  • bEcKgAmE
    Guest
  • 13 มี.ค.2547,12:18น.
    ลองหาหนังสือเกี่ยวกับ tab อ่านดูคับ แรกๆ ผมก็งงเต้กเลยอะคับ แต่ไม่ยากอย่างที่คิดหรอกคับ ลองฝึกกันบ่อยๆนะคับ ไม่มีใครเข้าใจอะไรตั้งแต่เกิดหรอกคับ
    ((อัพเดทคอร์ดกีต้าร์))
  • bEcKgAmE
    Guest
  • 13 มี.ค.2547,16:22น.
    พวกเสียงแตกอะคับ mettal zone, distortion, overdrive ประมาณเนี้ยคับ
    ((อัพเดทคอร์ดกีต้าร์))
  • bEcKgAmE
    Guest
  • 14 มี.ค.2547,15:46น.
    10^12 
    
    การดันสายคับ

    จริงๆต้องเปน

    10^full

    full คือดันสายจากเสียงหนึ่ง ไปเป็นอีกเสียงหนึ่งเสียงเต็มคับ

    เด๋ววันหลังหาลิงค์มาให้อ่านกัน
    ((อัพเดทคอร์ดกีต้าร์))
  • bEcKgAmE
    Guest
  • 15 มี.ค.2547,18:14น.
    12/13 เปนการเล่น slide สายคับ ดีดเฟรต12แล้วรูดนิ้วมาที่13 โดยดีดเพียงครั้งเดียว เสียงที่ได้จะต่อเนื่องกันคับ
    ((อัพเดทคอร์ดกีต้าร์))
  • เด็กหล่อ
    Guest
  • 3 เม.ย.2547,16:53น.
    สวัสดีครับเพลงฟังดีมากๆๆๆๆๆๆๆๆๆๆๆๆๆๆเลยนัคร๊าบๆๆๆๆๆๆๆๆๆ    
    ((อัพเดทคอร์ดกีต้าร์))
  • ด.ช.มุ่งมั่น ขยันแกะ
    Guest
  • 9 เม.ย.2547,14:51น.
    ด.ช.มุ่งมั่น ขยันแกะ (202.129.44.*) [ วันศุกร์ ที่ 9 เมษายน 2547 เวลา 14:49 น. ] [ x ] ผู้ตอบคนที่ 249 
    
    ฉบับสมบูรณ์ครับอันนี้แน่นอน ของคุณbEcKgAmEครับผมเอาที่แก้ไขไว้แล้วมาลงและเรียบเรียงให้ใหม่แล้วครับ

    Tab คนเจียมตัว


    INTRO :

    2-----------8h1010^12---10^12---10^12---10^12---10---77h8------
    3---7h9----------------------------------------------------

    2-----------8/1212/1312888/10---8
    3---7h9----------------------------------------------------

    PRE HOOK :*ฉันยินดีจะยอมเฝ้ารอ...ขอสัญญาจะไม่วุ่นวาย
    แค่ให้รู้ว่าใจหมดใจมันรักเธอ...

    2---------7h8p7-----------9h10p9------------5h7--7---8---8/10--8-
    3---5/7--------------7/9-----------------5/7-------------------------------

    5---5---3---2--------
    6----------------5---3



    SOLO :

    3 2/4----4/7---7----5----4h5p4----------5/7--7
    4 --------------------------------------5--7------

    3 --4h5p4--------------------------------------------------7/9---7------
    4 ----------7--5----7/9---9---9-----7--5--77/9-------------

    3 --5--4--5--7-----------7--------------
    4 ------------------5--5-------5/7--5--5--

    2-----------------------------------8/10---8--------
    3----------------------------7-----------
    4 --------------57/9------------
    5 --5---7-----------

    1----------------------------------------------------------17^19---15----------
    2---------8--8--------8/10-----------12---15---17------------
    3 7/9-----------9----------------

    LAST HOOK :คนเจียมตัวก็ได้แต่...เจียมใจ....

    1-------14^15---14^15-----------------14---14-----------------------------------------14h15p14----------
    2---12------------------------12---10-----------------12--12h13p12---------------------------------------15----
    3--------------------------------------------------------------------------------14---12-------

    1-------------------------------------------------------------------------------------------------------------------
    2---10--1212/13---12h13p12---8---8--7--88/10--8-------812/13--12--88^10---8-----
    3-----------------------------------------------------------------------9------------

    OUTRO :

    2----10^12---10^12---10^12---10^12---10---77h8------

    1---------10--8--7-------------------------------------------------------------
    2-----------------------8---------------10^12---10----10^12-----8--------
    3---9------------------------7/9------------------------------------------------


    ((อัพเดทคอร์ดกีต้าร์))
  • boyjohn
    Guest
  • 22 มิ.ย.2547,13:52น.
    โหโซคูลร้องก้อดีแล้วไอนําไม่เห็นได้เรืองเลย
    
    ((อัพเดทคอร์ดกีต้าร์))
  • geng it
    Guest
  • 9 ก.ค.2547,10:57น.
    ขอขอบคุณสำหรับเสียงอันไฟเราะ   
    ((อัพเดทคอร์ดกีต้าร์)) ((ขอคอร์ดกีต้าร์))
  • 5
    Guest
  • 3 ส.ค.2547,13:39น.
             
    ((อัพเดทแหล่งทดลองฟัง)) ((อัพเดทคอร์ดกีต้าร์)) ((ขอคอร์ดกีต้าร์))
  • คนเจียนตัว
    Guest
  • 17 ส.ค.2547,23:35น.
    เข้ากับชีวิตผมเลย  ฮิ....ฮิ.....
    ((อัพเดทแหล่งทดลองฟัง)) ((อัพเดทคอร์ดกีต้าร์))
  • ฟู(ส.ส)
    Guest
  • 9 ธ.ค.2548,00:28น.
    ไม่มีอะไรทำทำให้มันเกะกะเท่านั้นเอง

    Tab คนเจียมตัว


    INTRO :

    2-----------8h1010^12---10^12---10^12---10^12---10---77h8------
    3---7h9----------------------------------------------------

    2-----------8/1212/1312888/10---8
    3---7h9----------------------------------------------------



    PRE HOOK :*ฉันยินดีจะยอมเฝ้ารอ...ขอสัญญาจะไม่วุ่นวาย
    แค่ให้รู้ว่าใจหมดใจมันรักเธอ...

    2---------7h8p7-----------9h10p9------------5h7--7---8---8/10--8-
    3---5/7--------------7/9-----------------5/7-------------------------------

    5---5---3---2--------
    6----------------5---3



    SOLO :

    3 2/4----4/7---7----5----4h5p4----------5/7--7
    4 --------------------------------------5--7------

    3 --4h5p4--------------------------------------------------7/9---7------
    4 ----------7--5----7/9---9---9-----7--5--77/9-------------

    3 --5--4--5--7-----------7--------------
    4 ------------------5--5-------5/7--5--5--

    2-----------------------------------8/10---8--------
    3----------------------------7-----------
    4 --------------57/9------------
    5 --5---7-----------

    1----------------------------------------------------------17^19---15----------
    2---------8--8--------8/10-----------12---15---17------------
    3 7/9-----------9----------------

    LAST HOOK :คนเจียมตัวก็ได้แต่...เจียมใจ....

    1-------14^15---14^15-----------------14---14-----------------------------------------14h15p14----------
    2---12------------------------12---10-----------------12--12h13p12---------------------------------------15----
    3--------------------------------------------------------------------------------14---12-------

    1-------------------------------------------------------------------------------------------------------------------
    2---10--1212/13---12h13p12---8---8--7--88/10--8-------812/13--12--88^10---8-----
    3-----------------------------------------------------------------------9------------

    OUTRO :

    2----10^12---10^12---10^12---10^12---10---77h8------

    1---------10--8--7-------------------------------------------------------------
    2-----------------------8---------------10^12---10----10^12-----8--------
    3---9------------------------7/9------------------------------------------------
  • ฟลุ๊คไอดิน
    Guest
  • 24 พ.ค.2550,21:25น.

    แทบที่พิมพ์ไปนี้ชัวร์100%ไม่เชื่อลองเล่นดูถ้าไม่ตรงพิมพ์มาด่าได้เลยจะเหมือนไม่เหมือนอยู่ที่การตั้งสายว่าเข้ากับเพลงรึเปล่าและก็วิธีการดัดแปลงการเล่นแทบของแต่ละคนนะครับ
    หมายเหตุ ** เครื่องหมาย ^ อันนี้ คือการดันสายขึ้น จะดันสั้นดันยาวก็แล้วแต่แทบของเพลงครับ
    ** เครื่องหมาย > อันนี้ คือการสไลด์สายครับ
    เพลงนี้เล่นคีร์ G นะครับ

    intro

    1>-------------------------------------------------------------------------------------------------------------
    2>------------8--10--10^10^10^10^--10--7>8-----------8--8>12--13--12--8--8--8>10--8
    3>--4>7>9---------------------------------------------4>7>9-------------------------------------------
    4>-------------------------------------------------------------------------------------------------------------
    5>-------------------------------------------------------------------------------------------------------------
    6>-------------------------------------------------------------------------------------------------------------

    solo

    1>----------------------------------------------------------------------------------------------------
    2>----------------------------------------------------------------------------------------------------
    3>--2>4>7--7<5--4--------5>7--5>7--4>5----------------------------------------7>9--7
    4>-------------------------5>7----------------------7--5--7>9--9--9--7--5--7--7>9---------
    5>----------------------------------------------------------------------------------------------------
    6>----------------------------------------------------------------------------------------------------

    1>---------------------------------------------------------------------------------------------------10--12----19--15
    2>----------------------------------------------------------------8>10--8----8-8---8>10--12----------
    3>--5--4--5--5>7--------7---------------------------------7-------------7------7-----------------------
    4>--------------------5--5----5>7--5--5--------5--5>7-------------------------------------------------
    5>--------------------------------------------5--7-----------------------------------------------------------
    6>-------------------------------------------------------------------------------------------------------------

    Solo พร้อม ร้อง

    1>-----------14>15-15--------------12>14-14--------------------------14-14>15--------------
    2>--10>12--------------10>12-10--------------12-12>13-------------------------15-15-------
    3>-----------------------------------------------------------------14-12-12--------------------------

    1>---------------------------------------------------------------------------------------------------------
    2>--10--12--12>13--12-13-12--8-8--7--8--8>10--8---8---12>13--12--8--10--8-------
    3>---------------------------------------------------------------9-----------------------------------------

    Outro

    1>-------------------------------------------8>10--8--7-------------------------------------------------
    2>--10^-10^-10^-10^--10--7--7>8---------------8---10^-10-10^--8------------------------
    3>-----------------------------------------------------------9---------------------------------------------



  • Hs.Pae
    Guest
  • 17 ก.พ.2551,09:33น.
    So cool  - คนเจียมตัว 
    By - Hs.Pae

    INTRO /Cmaj7/Bm Em/Am D/G D/

    G Em
    เอื้อมไม่ถึง รู้ตัวฉันดียังไกลห่าง
    Am
    กลัวว่าเธอต้องลำบาก
    D G
    ถ้าหากว่าเธอเลือกฉัน
    C D
    ทุกๆวันต้องหลบหน้าเธอ
    Bm Em
    ทั้งที่ใจอยากเจอหน้ากัน
    Am Dsus4
    อยากจะคุยความในใจฉันที่มันรักเธอ

    G Em
    ได้แต่เพ้อ ละเมอว่ามีเธอเคียงข้าง
    Am
    วอนให้เธอเห็นใจบ้าง
    D G
    ก็อยากให้เธอรับไว้
    C D
    ขอสักคนแค่เป็นเพื่อนคุย
    Bm Em
    แค่ในยามที่เธอเหงาใจ
    Am D G G7
    ไม่ต้องตอบตกลงว่าจะรักกัน

    C
    * ฉันยินดีจะยอมเฝ้ารอ
    Bm E
    ขอสัญญาจะไม่วุ่นวาย
    Am A Dsus4
    แค่ให้รู้ว่าใจหมดใจมันรักเธอ

    G Bm
    ** คนเจียมตัวก็ได้แต่เจียมใจ
    Em G G7
    ทนทำใจได้แต่เฝ้ามองดูเธอ
    C Cm
    ฉันคงไม่มีสิทธิ์จะคิดดัง
    Bm Em
    ว่าฉันนั้นรักเธอ
    Am D G D
    ได้แต่เพ้อรักเธอข้างเดียว

    SOLO /G/Bm/Em/G G7/C Cm/Bm Em/
    /Am D/ G G7/

    (ซ้ำ * , ** , ** , *)

    G7 C D
    ได้แต่เจียมตัวแบบนี้เพราะรักเธอ

    SOLO /Cmaj7/Bm Em/Am D/G/

    ชัวร์ 100% ครับ!
  • ำิbenzguitar
    Guest
  • 19 ก.พ.2551,12:55น.


    คนเจียม ตัว socool


    INTRO :

    2-----------8h10&#8212;10^12---10^12---10^12---10^12---10---7&#8212;7h8------
    3---7h9----------------------------------------------------

    2-----------8/12&#8212;12/13&#8212;12&#8212;8&#8212;8&#8212;8/10---8
    3---7h9----------------------------------------------------

    10^12 คือดันสายจากเฟรต10ไปเปนเสียงเฟรต12คับ


    PRE CHORUS :*ฉันยินดีจะยอมเฝ้ารอ...ขอสัญญาจะไม่วุ่นวาย
    แค่ให้รู้ว่าใจหมดใจมันรักเธอ...

    2---------7h8p7-----------9h10p9------------5h7--7---8---8/10--8-
    3---5/7--------------7/9-----------------5/7-------------------------------

    5---5---3---2--------
    6----------------5---3


    SOLO :

    3 &#8211;2/4----4/7---7----5----4h5p4----------5/7--7
    4 --------------------------------------5--7------

    3 --4h5p4--------------------------------------------------7/9---7------
    4 ----------7--5----7/9---9---9-----7--5--7&#8212;7/9-------------

    3 --5--4--5--7-----------7--------------
    4 ------------------5--5-------5/7--5--5--

    2-----------------------------------8/10---8--------
    3----------------------------7-----------
    4 --------------5&#8212;7/9------------
    5 --5---7-----------

    1----------------------------------------------------------17^19---15----------
    2---------8--8--------8/10-----------12---15---17------------
    3 &#8211;7/9-----------9----------------

    เครื่องหมาย / คือเล่นสไลด์นะคับ สมมติว่าดีดเฟรต8รูดนิ้วไปเฟรต10โดยดีดที่เฟรต8เพียงครั้งเดียว


    LAST CHORUS :คนเจียมตัวก็ได้แต่...เจียมใจ....

    1-------14^15---14^15-----------------14---14-----------------------------------------14h15p14----------
    2---12------------------------12---10-----------------12--12h13p12---------------------------------------15----
    3--------------------------------------------------------------------------------14---12-------

    1-------------------------------------------------------------------------------------------------------------------
    2---10--12&#8212;12/13---12h13p12---8---8--7--8&#8212;8/10--8-------8&#8212;12/13--12--8&#8212;8^10---8-----
    3-----------------------------------------------------------------------9------------


    OUTRO : อันนี้ท่อนจบ ที่เล่นคอร์ด C คับ

    2----&#8212;10^12---10^12---10^12---10^12---10---7&#8212;7h8------

    1---------10--8--7-------------------------------------------------------------
    2-----------------------8---------------10^12---10----10^12-----8--------
    3---9------------------------7/9------------------------------------------------


    อันนี้เหมือนก่าน่ะ มีเทคนิคกีต้าร์ต่างๆด้วย ที่แกะๆกันอะ ดีดธรรมดา

    คุณ s-p-a-i-c-i-a-l กรุณาอย่ามั่วคับ 10h12 ตัว h คือ hammer on คือดีดเฟรต10แล้วก็เอานิ้วอื่นมากดที่เฟรต12โดยดีดเพียงครั้งเดียว เสียงจะได้ 2 เสียง รูดสายก็ต่างหากคับ สัญลักษณ์คือ / ตะหากล่ะ

    เวลาลง tab พิมพ์เลขสายด้วยนะคับจะได้ดูง่ายๆ
1

ขอเชิญร่วมแสดงความคิดเห็นครับ

คลิกที่รูป เพื่อแทรกรูปลงในข้อความ
  • Member :
    username
    password
  • Not a member :
    name
    email