Loading

คอร์ดเพลง ความลับในใจ

สิบล้อ

อัพโหลดคลิปเพลงนี้ที่คุณ ร้อง/เล่น ด้วยตัวคุณเอง ได้แล้ววันนี้
ระหว่างการทดสอบระบบหากพบข้อผิดพลาด กรุณาแจ้งที่นี่
ความลับในใจ
Artist : สิบล้อ
Album : มนต์รักสิบล้อ

Intro : D A G D A ( 2 Times )

D A
ฉันเข้าใจเธออยู่. . .ฉันเข้าใจเธอดี
G D A
เพราะรู้ว่าในใจ. . เธอนี้ นั้นมีเจ้าของ
D A
ใจเขาก็มีเธอ. . .ใจเธอก็มีแต่เขา
G D A
ใจฉันเลยต้องเศร้า. . .ปวดร้าว จนฉันต้องถอยไป

D A
เมื่อเห็นเธอเป็นสุข. . .ตัวฉันก็สุขใจ
G D A
เมื่อเธอมีเขาคอย. . .ห่วงใย ดูแลเคียงชิดใกล้
D A
วันไหนที่เธอเศร้า. . .กับเขาที่จากไป
G D A
วันไหนที่เธอต้อง. . .ร้องไห้ จะไปเคียงข้างเธอ

Bm G A D
* มีความลับที่อยู่ในใจ มีความลับที่อยู่ข้างใน
Bm G D A
เป็นความลับที่ยังเปิด. .เผยไม่ได้
Bm G A D
มีความลับที่อยู่ในใจ เป็นความลับที่อยู่ข้างใน
Bm G A
แต่ไม่รู้จะบอกเธอ. . .ได้อย่างไร

D A
** สมมุติว่าเธอเลิก. . .สมมุติว่าเธอลา
G D A
สมมุติว่าน้ำตา. . เธอนอง จากคนนั้นของเธอ
D A
ยังหวังรอเธออยู่. . .จะเข้ามาเรื่อยไป
G D A
ก็แล้วแต่ว่าใจ. . .ของเธอ จะมีฉันรึเปล่า

Solo : Bm G A D
Bm G D A
Bm G A D
Bm G A

( ซ้ำ ** . * , * )

D
ฉันรักเธอ. . .. .


ดาวน์โหลด Full Song
กด *424243000206584
กด *424243000206584
ดาวน์โหลด Truetone
กด *424218000206584
กด *424218000206584
กด *424218000206584
ดาวน์โหลด Poly
กด *424214000206584
กด *424214000206584
กด *424214000206584
ดาวน์โหลด Mono
กด *424211000206584
กด *424211000206584
กด *424211000206584
* อัตราค่าบริการดาวน์โหลด Fullsong, Truetone, Poly, Mono : 35 บาท/เพลง
ส่งเพลงนี้ให้เพื่อน
วันที่โพสต์ : 24 ส.ค.2546,13:18น.
จำนวนผู้ชม : 379825 คน / แสดงความคิดเห็น : 40 ครั้ง
โพสต์โดย


จาก: NV pooh
Guest
เพลงแนะนำ
เพลงฮิต
เลือกแสดงเฉพาะ :

  • องอาจ พุ่มระชัฎ
    Guest
  • 10 ต.ค.2546,03:10น.
    ผมขอบมากเลยนะครับเพลง "ความลับในใจ" แต่ผมอยากให้ผู้หญิงร้องด้วยนะมันอาจจะสนุกกว่านี้ ผมชอบเพลงนี้มากที่สุดเลยนะครับแล้วขอให้พี่ฮิวโก๋ ร้องเพลงนี้ไปเรื่อยๆนะครับขอเป็นกำลังใจให้พี่เสมอเลย                    
    ((อัพเดทคอร์ดกีต้าร์))
  • องอาจ พุ่มระชัฎ
    Guest
  • 10 ต.ค.2546,03:10น.
    ผมขอบมากเลยนะครับเพลง "ความลับในใจ" แต่ผมอยากให้ผู้หญิงร้องด้วยนะมันอาจจะสนุกกว่านี้ ผมชอบเพลงนี้มากที่สุดเลยนะครับแล้วขอให้พี่ฮิวโก๋ ร้องเพลงนี้ไปเรื่อยๆนะครับขอเป็นกำลังใจให้พี่เสมอเลย                    
    ((อัพเดทคอร์ดกีต้าร์))
  • ต้าร์
    Guest
  • 16 ต.ค.2546,21:39น.
    ความลับในใจ 
    
    Artist : สิบล้อ


    Intro: D/A/G/D (2 times)
    D
    ฉันเข้าใจเธออยู่
    A
    ฉันเข้าใจเธอดี
    G
    เพราะรู้ว่าในใจเธอนี้
    D A
    นั้นมีเจ้าของ
    D A
    ใจเขาก็มีเธอ ใจเธอก็มีแต่เขา
    G
    ใจฉันเลยต้องเศร้า ปวดร้าว
    D A
    จนฉันต้องถอยไป
    D
    เมื่อเห็นเธอเป็นสูข
    A
    ตัวฉันก็สูขใจ
    G
    เมื่อเธอมีเขาคอยห่วงใย
    D A
    ดูแลเคียงชิดใกล้
    D
    วันไหนที่เธอเศร้า
    A
    กับเขาที่จากไป
    G
    วันไหนที่ต้องร้องไห้
    D A
    จะไปเคียงข้างเธอ
    Bm G
    ** มีความลับที่อยู่ในใจ
    A D
    มีความรับที่อยู่ข้างใน
    Bm G D/A
    เป็นความลับที่ยังเปิดเผยไม่ได้
    Bm G
    มีความลับที่อยู่ในใจ
    A D
    เป็นความลับที่อยู่ข้างใน
    Bm G A D
    แต่ไม่รู้จะบอกเธอได้อย่างไร (ฉันรักเธอ)
    D
    * สมมุติว่าเธอเลิก
    A
    สมมุติว่าเธอลา
    G
    สมมุติว่าน้ำตาเธอนอง
    D A
    จากคนนั้นของเธอ
    D
    ยังหวังนอเธออยู่
    A
    จะเฝ้ารอเรื่อยไป
    G
    ก็แล้วแต่ว่าใจของเธอ
    D A
    จะมีฉันหรือเปล่า
    Instru: Bm/G/A/D/Bm/G/D/A
    Bm/G/A/D/Bm/G/A
    (ซ้ำ *,**,**)

    ((อัพเดทคอร์ดกีต้าร์))
  • ทม
    Guest
  • 21 ธ.ค.2546,20:16น.
    ดี   
    ((อัพเดทแหล่งทดลองฟัง))
  • Sun
    Guest
  • 15 มี.ค.2547,20:45น.
    พี่ฮิวโก้หน้าเมื่อนผม 
    ((อัพเดทแหล่งทดลองฟัง))
  • Dow
    Guest
  • 15 มี.ค.2547,20:51น.
    Markหน้าเมื่อนพี่ฮิวโก้มาก
    ((อัพเดทแหล่งทดลองฟัง))
  • ..3156585955495852-7-794*
    Guest
  • 26 มี.ค.2547,11:56น.
                       
    ((อัพเดทคอร์ดกีต้าร์))
  • unknow
    Guest
  • 12 พ.ค.2547,18:42น.
    TAB มาแล้ว
    ((อัพเดทคอร์ดกีต้าร์))
  • buffaloes
    Guest
  • 12 พ.ค.2547,18:46น.
    Intro  :  Bm  A  G  Bm  A  ( 2 Times )

    D A
    ฉันเข้าใจเธออยู่. . .ฉันเข้าใจเธอดี
    G D A
    เพราะรู้ว่าในใจ. . เธอนี้ นั้นมีเจ้าของ
    D A
    ใจเขาก็มีเธอ. . .ใจเธอก็มีแต่เขา
    G D A
    ใจฉันเลยต้องเศร้า. . .ปวดร้าว จนฉันต้องถอยไป

    D A
    เมื่อเห็นเธอเป็นสุข. . .ตัวฉันก็สุขใจ
    G D A
    เมื่อเธอมีเขาคอย. . .ห่วงใย ดูแลเคียงชิดใกล้
    D A
    วันไหนที่เธอเศร้า. . .กับเขาที่จากไป
    G D A
    วันไหนที่เธอต้อง. . .ร้องไห้ จะไปเคียงข้างเธอ

    Bm G A D
    * มีความลับที่อยู่ในใจ มีความลับที่อยู่ข้างใน
    Bm G D A
    เป็นความลับที่ยังเปิด. .เผยไม่ได้
    Bm G A D
    มีความลับที่อยู่ในใจ เป็นความลับที่อยู่ข้างใน
    Bm G A
    แต่ไม่รู้จะบอกเธอ. . .ได้อย่างไร

    D A
    ** สมมุติว่าเธอเลิก. . .สมมุติว่าเธอลา
    G D A
    สมมุติว่าน้ำตา. . เธอนอง จากคนนั้นของเธอ
    D A
    ยังหวังรอเธออยู่. . .จะเข้ามาเรื่อยไป
    G D A
    ก็แล้วแต่ว่าใจ. . .ของเธอ จะมีฉันรึเปล่า

    Solo : Bm G A D
    Bm G D A
    Bm G A D
    Bm G A

    ( ซ้ำ ** . * , * )

    D
    ฉันรักเธอ. . .. .

    ตอน อินโทร ขึ้นด้วย คอร์ด D มันจะเปลี่ยนคอร์ดแล้วไม่เข้า ต้องใช้กีต้าร์สองตัว คนเล่นสองคน ซึ่งไม่จำเป็น ใช้คอร์ด Bm ดีกว่านะ
    ((อัพเดทคอร์ดกีต้าร์))
  • นายบังเอิญ นามสกุล เกือบไปแล้ว ชื่อเล่น ชื่อฟลุ๊ค
    Guest
  • 12 พ.ค.2547,19:49น.
    1|------------------------------------------------------------------------
    2|------------------------------------------------------------------------
    3|------------------------------------------------------------------------
    4|----------------5----7----5------------------------5----7----5-3-5
    5|----5----7----------------------------5----7-------------------------
    6|------------------------------------------------------------------------

    ยังไม่จบอ่ะ มีอีก ต่อเลยๆ

    1|-----------------------------------------------------------------------
    2|-----------------------------------------------------------------------
    3|-----------------------------------------------------------------------
    4|-----9--10--11-----10-----10-------------------------------------
    5|-----------------------------------------------------------------------
    6|-----------------------------------------------------------------------

    ก็ยังไม่จบอีกแหละ ต่อเลยนะ

    1|-----------------------------------------------------------------------------------------------------
    2|-----------------------------------------------------------------------------------------------------
    3|-----------------------------------------------------------------------------------------------------
    4|----------------5----7----5------------------------5----7----5-3--5--------11--10--8--9----
    5|----5----7----------------------------5----7------------------------------------------------------
    6|-----------------------------------------------------------------------------------------------------

    ยังมีอีก ยังมีอีก

    1|-----------------------------------------------------------------------
    2|-----------------------------------------------------------------------
    3|--------------------13----15-----------------------13----15------
    4|-----13----15----------------------13----15----------------------
    5|-----------------------------------------------------------------------
    6|-----------------------------------------------------------------------

    1|------------------------------------------------------------------------------------------------
    2|------------------------------------------------------------------------------------------------
    3|--------------------13----15-----------------------13----15---------------13-16-15-15
    4|-----13----15----------------------13----15---------------------------15------------------
    5|-------------------------------------------------------------------------------------------------
    6|-------------------------------------------------------------------------------------------------

    1|---------------------12----14----------------------12-----14---------------------
    2|-----12----14---------------------12-----14------------------------------------
    3|-------------------------------------------------------------------------------------
    4|-------------------------------------------------------------------------------------
    5|-------------------------------------------------------------------------------------
    6|-------------------------------------------------------------------------------------

    ต่อเลยๆ ต่อพอดีไม่เอา เอาต่อเลย ผึ้งก็ไม่เอาเน่อ

    1|---------------------12----14----------------------12-----14------12----------15--17--19
    2|-----12----14---------------------12-----14---------------------------------------------------
    3|----------------------------------------------------------------------------------------------------
    4|----------------------------------------------------------------------------------------------------
    5|----------------------------------------------------------------------------------------------------
    6|----------------------------------------------------------------------------------------------------

    แล้วจะรู้เรื่องมั๊ยเอา สรุป เอาไปต่อๆกันเองละกันนะ แกะเองแหละ เป็น มือกรง มือกลอง มาเล่นกีต้าร์ แกะได้ก็บุญแล้ว ฮ่า ๆ ๆ

    ((อัพเดทคอร์ดกีต้าร์))
  • 22 ก.ย.2557,01:35น.
    Intro  :  D  A  G  D  A  ( 2 Times )
    
                  D                         A
    ฉันเข้าใจเธออยู่. . .ฉันเข้าใจเธอดี
                G                   D       A
    เพราะรู้ว่าในใจ. . เธอนี้   นั้นมีเจ้าของ
               D                       A
    ใจเขาก็มีเธอ. . .ใจเธอก็มีแต่เขา
                   G                         D              A
    ใจฉันเลยต้องเศร้า. . .ปวดร้าว  จนฉันต้องถอยไป
    
                    D                      A
    เมื่อเห็นเธอเป็นสุข. . .ตัวฉันก็สุขใจ
                    G                     D               A
    เมื่อเธอมีเขาคอย. . .ห่วงใย   ดูแลเคียงชิดใกล้
                        D                           A
    วันไหนที่เธอเศร้า. . .กับเขาที่จากไป
                 G                        D               A
    วันไหนที่เธอต้อง. . .ร้องไห้   จะไปเคียงข้างเธอ
    
                  Bm          G              A              D
    *   มีความลับที่อยู่ในใจ   มีความลับที่อยู่ข้างใน
                 Bm       G               D        A
    เป็นความลับที่ยังเปิด. .เผยไม่ได้
              Bm          G                  A              D
    มีความลับที่อยู่ในใจ   เป็นความลับที่อยู่ข้างใน
           Bm        G                   A
    แต่ไม่รู้จะบอกเธอ. . .ได้อย่างไร
    
                        D                         A
    **   สมมุติว่าเธอเลิก. . .สมมุติว่าเธอลา
                 G                         D             A
    สมมุติว่าน้ำตา. . เธอนอง   จากคนนั้นของเธอ
                 D                           A
    ยังหวังรอเธออยู่. . .จะเข้ามาเรื่อยไป
              G                       D         A
    ก็แล้วแต่ว่าใจ. . .ของเธอ  จะมีฉันรึเปล่า
    
    Solo  :   Bm  G  A  D
                  Bm  G  D  A
                  Bm  G  A  D
                  Bm  G  A
    
    (  ซ้ำ   **  .  *   ,   *   )
    
              D
    ฉันรักเธอ. . .. .
1

ขอเชิญร่วมแสดงความคิดเห็นครับ

คลิกที่รูป เพื่อแทรกรูปลงในข้อความ
  • Member :
    username
    password
  • Not a member :
    name
    email