Loading

คอร์ดเพลง คิดถึง

พีชเมคเกอร์ (Peacemaker)

อัพโหลดคลิปเพลงนี้ที่คุณ ร้อง/เล่น ด้วยตัวคุณเอง ได้แล้ววันนี้
ระหว่างการทดสอบระบบหากพบข้อผิดพลาด กรุณาแจ้งที่นี่

Asus2 C#m7
หลับตาลงยังรู้สึก
D
ท่ามกลางความอ้างว้างในหัวใจ
C#m
ค่ำคืนยาวนาน กับความเดียวดาย
Bm E
และลมหายใจที่ว่างเปล่า

Asus2 C#m7
** อยากให้เธอได้สัมผัส
F#m A7
กับความห่วงใยที่มีให้เธอ
Dmaj7
ได้ยินเสียงของพระจันทร์
C#m Bm E
จะกล่อมเธอฝันดี ให้เธอได้รู้ตลอดไป
A C#m F#m7
** ว่าทุกเวลา ที่เราห่างกันแสนไกล
A7 D C#m
ยังมีอีกคำในหัวใจ ที่จะบอกเธอ
Bm D
ให้เธอได้รู้และเข้าใจ

E A C#m F#m7
*** ว่าคิดถึงเธอ เมื่อเราห่างกันแสนไกล
A7 D C#m
มีคำหนึ่งคำจะพูดไป ให้เธอได้รู้
Bm D
จะแทนความหมายความหว่งใย
E Asus2
ฉันคิดถึงเธอ
SOLO : /Asus2/Dsus2/E/

( ซ้ำ *,**,***)

SOLO /Dmaj7/C#m/Bm7/E/

Asus2
ก็ฉันมีเพียงเธอ

ดาวน์โหลด Full Song
กด *424243001576584
กด *424243001576584
ดาวน์โหลด Truetone
กด *424218001576584
กด *424218001576584
กด *424218001576584
ดาวน์โหลด Poly
กด *424214001576584
กด *424214001576584
กด *424214001576584
ดาวน์โหลด Mono
กด *424211001576584
กด *424211001576584
กด *424211001576584
* อัตราค่าบริการดาวน์โหลด Fullsong, Truetone, Poly, Mono : 35 บาท/เพลง
ส่งเพลงนี้ให้เพื่อน
วันที่โพสต์ : 5 ก.ค.2546,10:47น.
จำนวนผู้ชม : 257705 คน / แสดงความคิดเห็น : 38 ครั้ง
โพสต์โดย


จาก: เว็บมาสซาเตอร์
เข้าร่วม: 9 ปีก่อน
เพลง: 0
โพสต์: 217
เพลงแนะนำ
เพลงฮิต
เลือกแสดงเฉพาะ :

  • 451
    Guest
  • 28 พ.ย.2546,19:46น.
        
    ((อัพเดทแหล่งทดลองฟัง)) ((อัพเดทคอร์ดกีต้าร์)) ((ขอคอร์ดกีต้าร์))
  • 451
    Guest
  • 28 พ.ย.2546,19:46น.
        
    ((อัพเดทแหล่งทดลองฟัง)) ((อัพเดทคอร์ดกีต้าร์)) ((ขอคอร์ดกีต้าร์))
  • Bew Lcc
    Guest
  • 24 ก.ย.2547,20:34น.
    intro
    ---------------------12------------------
    ---10T12--------------9-10-10/12-10-9-7---------------------------------10-9--------------------------------------Hamonic-12
    ----------------10-------9--9---9/11---9--9-7--9T11--12-10-10T12---------10----9-10----10--10/12
    -----------------------------------------------------------------------------------------------------9---------9
    --------------------------------------------------------
    -------------------------------------

    ท่ามกลางความอ้างว้างในหัวใจ
    --------------12--10/12-------------------
    ----10-12------------------10-12-9----10--10/12
    --------------------------------------------9-----
    ----------------------------
    -------------------------
    ----------------------------

    คำคืนยาวนานกับความเดียวดาย
    -------------------------------------------
    ---10T12-------------9-10-12
    --------------10T12---------------9
    -------------------
    -------------------
    ---------------------

    อยากให้เธอได้สัมผัส
    ----------------------------
    --9-10-12-10-12-
    -------------------------
    ------------------------
    ------------------------
    ----------------------------
    ไดยินเสียงของพระจันทร์---จะกล่อมเธอฝันดี
    ------------------------------------------10T12-10/9-10----10
    ----------7-9-10-12----12---------------------------------9
    ----7-9-----------------9------------
    ---------------------------
    ---------------
    ---------------------
    ***ว่าทุกเวลาและว่าคิดถึงเธอ(เล่นเหมือนกัน)
    --10T12--9T10--7T9--7T8--5T7--5
    --10T12--9T10--7T9--7T8--5T7--5
    ------------------------
    -----------------
    -------------------
    ------------------

    ยังมีอีกคำจะพูดไปให้เธอได้รู้และเข้าใจ
    ---------------------------------------------
    ---------7-9--10T12-10-10-----------12----10---12-10T12---10--10--12
    ---7-9--------------------------------------------9------------------------------9
    ------------------------
    ---------------------
    --------------------
    ว่าคิดถึงเธอข้างบน***


    เมื่อเราห่างกันแสนไกล
    ---------------------
    --------------7-9---10T12-10
    -------7-9-------
    -7-9------------
    ------------------
    -------------------
    มีคำหนึ่งคำจะพูดไป ให้เธอได้รู้
    ----------------------------------
    -------------7-9---10/12-10--------12-------12-10-12-10/12-10
    --------7-9------------------------------------9
    ---7-9-----------
    ------------------
    -------------------
    ฉันคิดถึงเธอ
    ------------------------
    ------10-12010T12-10-9-10---10--12--12
    ---9-----------------------------------9-----
    ---------------------------
    ---------------------
    ---------------------
    เริ่มตรงนี้แล้วก็วนไปเล่นได้ยินเสียงของพระจันทร์ครับ
    **อยากให้เธอได้สัมผัส(ครั้งที่2)
    --10T12-10------------
    -----------------10-9-10
    ------------------
    ------------------
    -------------------
    ------------------


    ให้เธอได้รู้(ก่อนจบ)
    ----------------
    -----------12/14
    ---9T11---
    -------------
    -------------

    ฉันคิดถึงเธอ(ตอนจบ)Outro
    -------------
    -------7-9-10T12-10----12-----------12-10-12----------10-10/12-12-----12
    -7-9-----------------------9------9T11-----------------9T11---------------------9
    แล้วก็ต่อด้วยท่อนเร็วครับรีบๆหน่อยน้างิงิ
    ----------------------------------10T12---7T9---------
    --------------7T9---10T12-----------------------
    --------7T9--------------------------------------------------Hamanic-12-9-7-5
    --7T9------------------------------------------------11-9
    -------------------
    -------------------


    คือผมเขียนแท็ปได้แต่ไม่รู้ศัพท์ในการใช้แท็ปผมจึงแทนด้วยงี้นะครับ
    ตัวTคือดีดเลขตัวหน้าตัวTแล้วใช้นิ้วอีกนิ้วทาบเลขหลังตัวT-
    Hamonicคือ ดีดโดยไม่กดอะครับคือเอานิ้วทาบแล้วดีดให้ดังมิ๊งงงงงง
    / ก็คือสไลด์จากสายเลขหน้า/มาเลขหลัง/อะครับ

    เห้ออธิบายยาก Master ห้ามลืมใส่ชื่อผมเป็นผู้แกะด้วยกว่าจะแกะได้เหนื่อย
    มีตรงไหนผิดก็ช่วยๆกันแก้นะครับแต่อย่าด่านะ
    หวังว่าคงจะเล่นสนุกกันงิงิ
    ((อัพเดทคอร์ดกีต้าร์))
1

ขอเชิญร่วมแสดงความคิดเห็นครับ

คลิกที่รูป เพื่อแทรกรูปลงในข้อความ
  • Member :
    username
    password
  • Not a member :
    name
    email