Loading

คอร์ดเพลง คืนจันทร์

โลโซ (Loso)

อัพโหลดคลิปเพลงนี้ที่คุณ ร้อง/เล่น ด้วยตัวคุณเอง ได้แล้ววันนี้
ระหว่างการทดสอบระบบหากพบข้อผิดพลาด กรุณาแจ้งที่นี่
Intro: Cmaj7/Fmaj7(2time)
Em7/Am7/Dm7/G

Cmaj7
คืนนี้จันทร์นวลผ่อง

Fmaj7
มองแล้วคิดถึงแต่เธอ

Cmaj7
ตัวฉันยืนมองเหม่อ

Fmaj7
ถามว่าเธออยู่ที่ใด

Em7
วอนสายลมแผ่วๆ

Am7 Dm7 G
ให้ช่วยพัดพาใจไป บอกกับเธอว่าคิดถึง

Cmaj7
* จันทร์เจ้ารู้หรือเปล่าว่า

Fmaj7
ฉันเหงาเกินกว่าใคร

Cmaj7
วันที่เธอลาไกล

Fmaj7
บอกไปแล้วจะกลับมา

Em7
คืนนี้ฉันรอเธออยู่

Am7
อยากบอกให้รู้คำเดียวว่า

Dm7 G
จะรอจนกว่า ค่ำคืนนี้ไม่มีจันทร์

Fmaj7 Em7
** รัก รักเธอหมดใจรู้หรือเปล่า

Dm7
อยากมีเพียงสองเรา

G
อยู่กับจันทร์เหมือนเคย

Fmaj7 Em7
อยากฟังซ้ำ คำที่เธอเอื้อนเอย

Dm7
บอกว่ารักเหมือนเคย

G Cmaj7
อยู่ในอ้อมแขน(ฉัน)

Instru: Fmaj7/Em7 (3times)
Am7/Dm7/G/Cmaj7/G
ดาวน์โหลด Full Song
กด *424243006246584
กด *424243006246584
ดาวน์โหลด Truetone
กด *424218006246584
กด *424218006246584
กด *424218006246584
ดาวน์โหลด Poly
กด *424214006246584
กด *424214006246584
กด *424214006246584
ดาวน์โหลด Mono
กด *424211006246584
กด *424211006246584
กด *424211006246584
* อัตราค่าบริการดาวน์โหลด Fullsong, Truetone, Poly, Mono : 35 บาท/เพลง
ส่งเพลงนี้ให้เพื่อน
วันที่โพสต์ : 26 มิ.ย.2547,16:35น.
จำนวนผู้ชม : 481477 คน / แสดงความคิดเห็น : 124 ครั้ง
โพสต์โดย


จาก: Armercieus
Guest
เพลงแนะนำ
เพลงฮิต
เลือกแสดงเฉพาะ :

  • fasf
    Guest
  • 23 ก.ย.2550,19:46น.


    intro,;
    Cmaj7 Fmaj7 Cmaj7
    --------------------------------------------------------------------------0-----------0---------------------------------------
    ---0-----1---0----------------0---1---------------3-----1----0--1------1------------0-----1---0-----------0------1---
    ---0------------------0----------------------2--------------------------------2----------0-------------0--------------------
    ---2----------------------2------------------3--------------------------------------------2----------------2-----------------
    ---3---------------------------------------------------------------------------------------3-----------------------------------
    --------------------------------------------------------------------------------------------------------------------------------

    Fmaj7 Em Am7
    -----------------------------------------------------0------1----0-------------------------------3-----0------------------
    --------3------1h3h1-----------1---------3-----0------------------0-------------------------1-----------3------1-----
    --2--------------------------2----------2----------0----------------------0-------------0------2-------------------------
    --3--------------------------------------------------2--------------------------0h2-------------2-------------------0----
    -------------------------------------------------------------------------------------------------------------------------------
    ------------------------------------------------------------------------------------------------------------------------------

    Am Dm7 G
    ------------0-------------------------------------------------------------1-----------------------------------------------------
    -----------------1--------0----------------1-------0-----1-------------------------3-----1------0--------------1--------3--
    -------2------------2-----------------2--------2-------------------2--------2-----------------------------0------------------
    ---2-----------------------------0------------------------------------------------------------------------0-----0-----0--------
    -----------------------------------------------------------------------------------------------------------------------------------
    -----------------------------------------------------------------------------------------------------3------------------------3-
    ((ขอคอร์ดกีต้าร์))
  • fasf
    Guest
  • 23 ก.ย.2550,19:46น.


    intro,;
    Cmaj7 Fmaj7 Cmaj7
    --------------------------------------------------------------------------0-----------0---------------------------------------
    ---0-----1---0----------------0---1---------------3-----1----0--1------1------------0-----1---0-----------0------1---
    ---0------------------0----------------------2--------------------------------2----------0-------------0--------------------
    ---2----------------------2------------------3--------------------------------------------2----------------2-----------------
    ---3---------------------------------------------------------------------------------------3-----------------------------------
    --------------------------------------------------------------------------------------------------------------------------------

    Fmaj7 Em Am7
    -----------------------------------------------------0------1----0-------------------------------3-----0------------------
    --------3------1h3h1-----------1---------3-----0------------------0-------------------------1-----------3------1-----
    --2--------------------------2----------2----------0----------------------0-------------0------2-------------------------
    --3--------------------------------------------------2--------------------------0h2-------------2-------------------0----
    -------------------------------------------------------------------------------------------------------------------------------
    ------------------------------------------------------------------------------------------------------------------------------

    Am Dm7 G
    ------------0-------------------------------------------------------------1-----------------------------------------------------
    -----------------1--------0----------------1-------0-----1-------------------------3-----1------0--------------1--------3--
    -------2------------2-----------------2--------2-------------------2--------2-----------------------------0------------------
    ---2-----------------------------0------------------------------------------------------------------------0-----0-----0--------
    -----------------------------------------------------------------------------------------------------------------------------------
    -----------------------------------------------------------------------------------------------------3------------------------3-
    ((ขอคอร์ดกีต้าร์))
  • m น ม ร . ส. ว.3
    Guest
  • 17 ต.ค.2550,17:18น.


    การอ่านเเท็บนะคับ
    มันจะมีสายของกีตาร์อยู่ทั้งหมด6สายเเละถ้าตัวเลขใดอยู่บนสายนั้นก็ให้กดช่องนั้นเเล้ว ดีด เช่น
    6/-------2---------- ตัวอย่างนี้คือสาย6เเล้วมีเลข2อยู่นั่นก็คือให้กดช่อง2ของสาย6เเล้วดีด

    ตัวอย่าง
    1/-----3-------------------
    2/--------------0
    3/------------------0 ตัวอย่างนี้เราจะเห็นว่ามีทั้งหมด6สายเเล้วถ้าตัวเลขบนสายอยู่ตรงกันก็
    4/------2---------------- ก็ให้ดีดพร้อมกันดังตัวอย่างช่อง3เส้น1ตรงกับช่อง2เส้น4ก็ให้ดีด
    5/---------------------- พร้อมกันส่วนตัวเลขอื่นถ้าตัวเลขไหนมาก่อนก็ให้ดีดตัวนั้นก่อน
    6/-------------------------


    เทคนิค h= กดสายให้มีเสียงโดยไม่ดีดเช่น 2/-----1h2----- อันนี้คือกดช่อง1ของสาย2เเล้วดีด

    เเล้วเอานิ้วอีกนิ้วนึงไปกดช่อง2ของสาย2ให้มีเสียงออกมาโดยไม่ต้องดีด

    p=เกี่ยวสายให้มีเสียง ก็คล้ายกับอันเเรกเเหละคับเเต่ใช้เกี่ยวเอา

    /=สไล
    ( ) = เเตะสายเบาๆเเล้วดีดโดยไม่ให้มีเสียง เช่น 1/ ---------(2)-----ก็คือเเตะช่อง2
    ของสาย1เบาๆเเล้วดีดโดยไม่ให้มีเสียง
1

ขอเชิญร่วมแสดงความคิดเห็นครับ

คลิกที่รูป เพื่อแทรกรูปลงในข้อความ
  • Member :
    username
    password
  • Not a member :
    name
    email