Loading

คอร์ดเพลง งมงาย

บอดี้สแลม (Bodyslam)

อัพโหลดคลิปเพลงนี้ที่คุณ ร้อง/เล่น ด้วยตัวคุณเอง ได้แล้ววันนี้
ระหว่างการทดสอบระบบหากพบข้อผิดพลาด กรุณาแจ้งที่นี่
Print

ที่จำได้ดีคือฉันมีเพียงเธอ แม้นานสักแค่ไหน

เธออยู่ที่ใดยังรักกันไหม ฉันไม่รู้ แต่ที่รู้คือฉันนั้นยังไม่เปลี่ยนใจ
ยังอยู่ตรงนี้ถึงแม้จะเหงาและเดียวดาย

* ไม่ผิดใช่ไหมที่ฉันจะยังรักเธอ ไม่ว่าเธอกับฉันวันนี้จะอยู่แสนไกล
ก็ยังจะรออย่างมีความหวัง ยังคงไม่เปลี่ยนไป
ไม่ว่าใครจะมองว่าฉันงมงาย ฉันก็ยังเหมือนเดิม

เมื่อเธอมีทางชีวิตไม่เหมือนฉัน ฉันห้ามไม่ได้
แต่ฉันจะมีชีวิตเพื่อรอเธอ แม้วันสุดท้าย

เกิดมาได้เจอคนที่ตามหามานานแสนนาน ทำให้รู้ว่าเธอมีค่ามากแค่ไหน
จะอยู่ตรงนี้ถึงแม้ว่าฉันจะไม่เหลือใคร

(ซ้ำ *)

จะรอแค่เธอถึงแม้ใครหาว่างมงาย
ไม่ผิดใช่ไหมที่ฉันจะยังรักเธอ ไม่ว่าเธอกับฉันวันนี้จะอยู่แสนไกล
ก็ยังจะรออย่างมีความหวัง ยังคงไม่เปลี่ยนไป
ไม่ว่านานเท่าไรยังมีเพียงเธอ (ไม่ผิดใช่ไหมที่ฉันมีเธอคนเดียวในหัวใจ)
ไม่ว่ายังไง ฉันก็จะรักเธอ


http://www.musicatm.com/thai/คอร์ดเพลง-งมงาย-บอดี้สแลม-(Bodyslam)-89.html
ส่งเพลงนี้ให้เพื่อน
วันที่โพสต์ : 1 ก.พ.2546,02:17น.
จำนวนผู้ชม : 1258487 คน / แสดงความคิดเห็น : 284 ครั้ง
โพสต์โดย


จาก: AJ
Guest
เพลงแนะนำ
เพลงฮิต
เลือกแสดงเฉพาะ :

  • suthadtong@thaimail.com
    Guest
  • 29 ส.ค.2546,16:10น.
    ช่วย ใส่ คอร์ดให้ทีครับ   
    ((อัพเดทคอร์ดกีต้าร์))
  • suthadtong@thaimail.com
    Guest
  • 29 ส.ค.2546,16:10น.
    ช่วย ใส่ คอร์ดให้ทีครับ   
    ((อัพเดทคอร์ดกีต้าร์))
  • Mixsunyee
    Guest
  • 20 ธ.ค.2546,20:54น.
    ันเสาร์ ที่ 20 ธันวาคม 2546 เวลา 20:54 น. ] ผู้ตอบคนที่ 1
  • B o N G
    Guest
  • 25 มี.ค.2547,21:20น.
    แงๆๆๆๆ ขอ TAB ค้าบ ได้โปรด ชอบมาก เรยกั๊บ ถ้าให้ จา ขอบคุณมากๆๆๆ  









    ((อัพเดทคอร์ดกีต้าร์))
  • คิด
    Guest
  • 15 มิ.ย.2547,20:26น.
    ทำนองเป็นเสียงของบอดี้เเสลม เเละเพลงงมงายไม่ใช่เพลงจัดให้เอง....จัดเเต่งเพลงเอาเอง (
    ต้องตามที่เป็นข้อความดีด้วย........เเล้วทำให้เสร็จ..........................
    ต้องเป็นเพลง คนมันรัก หรือ อมพระมาพูด เเละ งมงาย เเละ ผู้ชายขี้อาย ก๋ได้น่ะค่ะ
    ((อัพเดทคอร์ดกีต้าร์))
  • จนุราวัตรฺ
    Guest
  • 15 มิ.ย.2547,20:28น.
    จาบ้าเหรอง่ะ
    ((อัพเดทคอร์ดกีต้าร์))
  • ผมมันโง่
    Guest
  • 30 มิ.ย.2547,19:49น.
    ขอเทปหน่อยครับ
    ((อัพเดทแหล่งทดลองฟัง)) ((อัพเดทคอร์ดกีต้าร์)) ((ขอคอร์ดกีต้าร์))
  • เดียร์ มือกีตาร์วงPhisical Sound
    Guest
  • 16 ก.ค.2547,14:02น.
    ท่อนsoloยากมากได้แต่ท่อนIntroง่าย
    1-------------------------------------------------
    2---8--8--8--8--8--8--8--^-------12
    3-----7--7--7--7--7--7--7------------9-10-11
    หลังๆอยากจะมั่วตรง9-10-11ผมไม่ค่อยมั่นใจลองเปลี่ยนเป็น8-9-10หรือ10-11-12ก็ได้นะ
    ((อัพเดทคอร์ดกีต้าร์))
  • แจ๊ก สามเสน
    Guest
  • 24 พ.ย.2548,16:44น.
    ตอนนี้บอดี้ไม่ใช่บอดี้

    อย่าเรียก"พี่ตูน บอดี้แสลม" "พี่ชัช บอดี้แสลม" "พี่ยอด บอดี้แสลม" "พี่ปิ๊ด บอดี้แสลม"

    วันนี้เหลือเพียง"พี่เภา บอดี้แสลม"

    " E B C#m A E
    ยังไงก็ยังติดพื้น ยังยืนยังเดินแบบฉัน ใครที่เค้ามีปีกพร้อมจะบินคงให้เค้าบินไป
    B C#m A B E
    เกินมาเป็นคนเดินช้า ก็ไม่ขอทำตามอย่างใคร ฝันไม่ใหญ่เกินตัว "

    มีใครรู้มั่ง เพลงซ้ำไปซ้ำมา ที่จิงเนื้อเป็นแบบนี้
    C Am
    "เจ็บปวดที่เภาคนนี้ยังเป็นคนเดิมที่มันเป็นเหมือนเดิม
    Dm G
    ยังจะร้องแนว..บอร์ดี้เท่านั้น
    C Am
    ต้องเจ็บกับหวังลมๆว่าเราจะกลับมาร่วมวง
    Dm G C
    แต่ก็รู้.. ไม่มีแล้ว.. บอร์ดี้ แสลม...................."



    อยากเห็นบอดี้แสลมในแบบบอดี้แสลมอีกครั้ง
  • แจ๊ก สามเสน
    Guest
  • 25 พ.ย.2548,19:32น.
    ตอนนี้บอดี้ไม่ใช่บอดี้

    อย่าเรียก"พี่ตูน บอดี้แสลม" "พี่ชัช บอดี้แสลม" "พี่ยอด บอดี้แสลม" "พี่ปิ๊ด บอดี้แสลม"

    วันนี้เหลือเพียง"พี่เภา บอดี้แสลม"

    " E B C#m A E
    ยังไงก็ยังติดพื้น ยังยืนยังเดินแบบฉัน ใครที่เค้ามีปีกพร้อมจะบินคงให้เค้าบินไป
    B C#m A B E
    เกินมาเป็นคนเดินช้า ก็ไม่ขอทำตามอย่างใคร ฝันไม่ใหญ่เกินตัว "

    มีใครรู้มั่ง เพลงซ้ำไปซ้ำมา ที่จิงเนื้อเป็นแบบนี้
    C C
    "เจ็บปวดที่เภาคนนี้ยังเป็นคนเดิมที่มันเป็นเหมือนเดิม
    Am Am
    ยังจะร้องแนว..บอร์ดี้เท่านั้น
    Dm Dm
    ต้องเจ็บกับหวังลมๆว่าเราจะกลับมาร่วมวง
    G G
    แต่ก็รู้.. ไม่มีแล้ว.. บอร์ดี้ แสลม...................."



    อยากเห็นบอดี้แสลมในแบบบอดี้แสลมอีกครั้ง
  • NicsZa
    Guest
  • 17 ม.ค.2549,21:09น.
    -----------0------------0-------------------------4-----------------0------------------------------------------------
    --------0------------0-----------0-----------0-----------------------------------------------------------------------
    --1/2--------1/2---------1/2-------1/2------------4-4---4/2---------------------------------------------------
    -----------------------------------------------------------------------------------------------------------------------
    -----------------------------------------------------------------------------------------------------------------------
    -----------------------------------------------------------------------------------------------------------------------


    -----------------------------------------------------------------------------------------------------------------------
    ---14---14-15---15-14--14-15---15-14--14----------2---2-3---3-2---2-3---3-2---2----------------------
    ---14---14-14---14-14--14-14---14-14--14----------2---2-2---2-2---2-2---2-2---2----------------------
    -----------------------------------------------------------------------------------------------------------------------
    -----------------------------------------------------------------------------------------------------------------------
    -----------------------------------------------------------------------------------------------------------------------

    -----------0------------0-------------------------4-----------------0------------------------------------------------
    --------0------------0-----------0-----------0-----------------------------------------------------------------------
    --1/2--------1/2---------1/2-------1/2------------4-4---4/2---------------------------------------------------
    -----------------------------------------------------------------------------------------------------------------------
    -----------------------------------------------------------------------------------------------------------------------
    -----------------------------------------------------------------------------------------------------------------------


    -----------------------------------------------------------------------------------------------------------------------0----2
    -----14---14-15--15-15-------9---9-9---9-9--------12---12-12--12-12----9h12p9-------9h12p9------------2
    -----14---14-14--14-14-------9---9-9---9-9--------10---10-10--10-10----------------10-------------10-------2
    ------------------------------------------------------------------------------------------------------------------------------
    ----Solo by NicsZa TriamUdom 67 WitCom14----------------------------------------------------------------
    ------------------------------------------------------------------------------------------------------------------------------
  • ไรหว่า
    Guest
  • 7 พ.ค.2549,18:48น.
    จัดไปอินโทรแบบแจ่มๆอิอิ

    1] -5---5---5---5---5---5---5-----------------------------
    2]----5---5---5---5---5---5---5-------------9h12-

    อิอิชัวมั้งเน้อแต่ถูกอะแหละ
  • ไรหว่า
    Guest
  • 7 พ.ค.2549,18:52น.
    งะลืมไปนิด

    1] -5---5---5---5---5---5---5-----------------------------
    2]----5---5---5---5---5---5---5-------------9h12---9

  • Nattanun
    Guest
  • 9 ต.ค.2549,00:42น.
    จากแท็ปล่าสุดนะครับ ขอแก้หน่อยนะครับ
    Solo ช่วงแรก
    1)---------0--------0----------|--------4----------------0-|
    2)-------0--------0-------0---|------0---------------------|
    3)--1/2-----1/2----1/2----|-2/4-------4-4---4\2----|

    แล้วก็ตอนสุดท้ายเลย

    ตรงนี้เขบ็จ2ชั้น นี่ก็ด้วย
    | |
    v v
    1)---9h12p9----------9h12p9---------------
    2)---------------10----------------10------------
    3)---------------------------------------11\9----

    นอกนั้นถูกหมดแล้วครับ
  • หนอน วงK2
    Guest
  • 29 พ.ย.2549,18:51น.
    Intro
    1:----------------------------------------------------------------9/12----9-------------
    2:---10------10-----10-----10-----10-----10-----10------------------------10---
    3--------9--------9--------9------9-------9------9--------9----------------9--------



    อันนี้ชัวร์ๆๆๆๆๆ
  • Lordphoenix
    Guest
  • 13 ก.พ.2550,07:48น.

    อันนี้ตรงนะครับ ชัวร์ หลายวงเล่นแบบนี้
    -------------------------------------------| ช่วง นี้เล่นเร็วนะ หรือจะ H ก็ได้ |

    1--------------------------------------------9-12-9------------
    2-10--10--10--10--10--10--10-----------------10-------
    3----9----9----9----9----9----9----9-------------------9-1

    ท่อนในต่อจากคำว่า เนิ่นนานเท่าไหร่ไม่รู้ที่รอเธอ ฉันจำไม่ได้

    2------------6------| เล่นงี้ 2 รอบ
    3---5---7------7---

    ท่อนในต่อจากคำว่า ที่จำได้ดีคือฉันมีเพียงเธอ แม้นานสักแค่ไหน

    1------------------------------6------
    2------------6------------------------
    3---5---7------7------5--7------7-

    ใครใจบุญ แกะ solo แบบเนียนๆให้ทีจิ แกะมะออก งิงิ
  • กรีซ(มือกีต้า)ไนท์(ร้องนำ)พี(มือเบส)พีท(มือกลอง)
    Guest
  • 18 ก.พ.2550,20:14น.

    ของจริงมาและ
    Intro

    1||----------------------------------------------9h12---------------
    2||--10---10--10---10---10--10---10-----------10--10-----
    3||------9----9-----9----9----9-----9-----9------------9---------

    Solo
    1)---------0--------0----------|--------4----------------0-|
    2)-------0--------0-------0---|------0---------------------|
    3)--1/2-----1/2----1/2----|-2/4-------4-4---4\2----|
    -----------------------------------------------------------------------------------------------------------------------
    ---14---14-15---15-14--14-15---15-14--14----------2---2-3---3-2---2-3---3-2---2----------------------
    ---14---14-14---14-14--14-14---14-14--14----------2---2-2---2-2---2-2---2-2---2----------------------
    -----------------------------------------------------------------------------------------------------------------------
    -----------------------------------------------------------------------------------------------------------------------
    -----------------------------------------------------------------------------------------------------------------------

    -----------0------------0-------------------------4-----------------0------------------------------------------------
    --------0------------0-----------0-----------0-----------------------------------------------------------------------
    --1/2--------1/2---------1/2-------1/2------------4-4---4\2---------------------------------------------------
    -----------------------------------------------------------------------------------------------------------------------
    -----------------------------------------------------------------------------------------------------------------------
    -----------------------------------------------------------------------------------------------------------------------


    -----------------------------------------------------------12---12-12--12-12-----9h12p9------9h12p9------------
    -----14---14-15--15-15-------9---9-9---9-9--------10---10-10--10-10----------------10------------10----------
    -----14---14-14--14-14-------9---9-9---9-9---------------------------------------------------------------------9/11---
    ------------------------------------------------------------------------------------------------------------------------------


  • กรีซ
    Guest
  • 15 มี.ค.2550,20:49น.

    แทปกีต้าแทรกตอน"ชั้นจำไม่ได้"ตามที่ความคิดเห็นที่ 110 ถามมา
    1------0------------------------------------
    2-0-1---1----------------------------------
    3-------------------------------------------

    วนไปนะ2รอบ


  • df
    Guest
  • 23 มี.ค.2550,21:53น.
    INTRO :	Aadd9 / Aadd9
    Dmaj7 Aadd9
    เนิ่นนานเท่าไรไม่รู้ที่รอเธอ ฉันจำไม่ได้
    Dmaj7 Aadd9
    ที่จำได้ดีคือฉันมีเพียงเธอ แม้นานสักแค่ไหน
    Bm E
    เธออยู่ที่ใดยังรักกันไหม ฉันไม่รู้
    Aadd9 C#m7 F#m
    แต่ที่รู้ คือฉันนั้นยังไม่เปลี่ยนใจ
    Bm E
    ยังอยู่ตรงนี้ถึงแม้จะเหงาและเดียวดาย

    Dmaj7 C#m7
    * ไม่ผิดใช่ไหม ที่ฉันจะยังรักเธอ
    Bm7 E
    ไม่ว่าเธอกับฉันวันนี้จะอยู่แสนไกล
    Dmaj7
    ก็ยังจะรออย่างมีความหวัง
    C#m7 F#m
    ยังคงไม่เปลี่ยนไป
    Bm7 E
    ไม่ว่าใครจะมองว่าฉันงมงาย
    Dmaj7 Aadd9
    ฉันก็ยังเหมือนเดิม
    Bm7 E
    ( ไม่ว่านานเท่าไร ยังมีเพียงเธอ
    Dmaj7 C#m F#m
    ไม่ผิดใช่ไหมที่ฉันมีเธอคนเดียวในหัวใจ
    G E G Aadd9
    ไม่ว่ายังไง....ฉันก็จะรักเธอ
    G Aadd9
    ฮึม....ฮึม )
    Dmaj7 Aadd9
    เมื่อเธอมีทางชีวิตไม่เหมือนฉัน ฉันห้ามไม่ได้
    Dmaj7 Aadd9
    แต่ฉันจะมีชีวิตเพื่อรอเธอ แม้วันสุดท้าย
    Bm7 E
    เกิดมาได้เจอคนที่ตามหามานานแสนนาน
    Aadd9 C#m7 F#m
    ทำให้รู้ว่าเธอมีค่ามากแค่ไหน
    Bm E
    จะอยู่ตรงนี้ถึงแม้ว่าฉันจะไม่เหลือใคร
    ( ซ้ำ * )

    SOLO : Dmaj7 / Aadd9 / Bm7 / Aadd9 /
    Dmaj7 / Aadd9 / Bm7 / E / Aadd9
    Bm7 E
    จะรอแค่เธอถึงแม้ใครหาว่างมงาย
    ( ซ้ำ * )
  • sf
    Guest
  • 23 มี.ค.2550,22:03น.
    INTRO :	Aadd9 / Aadd9
    Dmaj7 Aadd9
    เนิ่นนานเท่าไรไม่รู้ที่รอเธอ ฉันจำไม่ได้
    Dmaj7 Aadd9
    ที่จำได้ดีคือฉันมีเพียงเธอ แม้นานสักแค่ไหน
    Bm E
    เธออยู่ที่ใดยังรักกันไหม ฉันไม่รู้
    Aadd9 C#m7 F#m
    แต่ที่รู้ คือฉันนั้นยังไม่เปลี่ยนใจ
    Bm E
    ยังอยู่ตรงนี้ถึงแม้จะเหงาและเดียวดาย

    Dmaj7 C#m7
    * ไม่ผิดใช่ไหม ที่ฉันจะยังรักเธอ
    Bm7 E
    ไม่ว่าเธอกับฉันวันนี้จะอยู่แสนไกล
    Dmaj7
    ก็ยังจะรออย่างมีความหวัง
    C#m7 F#m
    ยังคงไม่เปลี่ยนไป
    Bm7 E
    ไม่ว่าใครจะมองว่าฉันงมงาย
    Dmaj7 Aadd9
    ฉันก็ยังเหมือนเดิม
    Bm7 E
    Dmaj7 Aadd9
    เมื่อเธอมีทางชีวิตไม่เหมือนฉัน ฉันห้ามไม่ได้
    Dmaj7 Aadd9
    แต่ฉันจะมีชีวิตเพื่อรอเธอ แม้วันสุดท้าย
    Bm7 E
    เกิดมาได้เจอคนที่ตามหามานานแสนนาน
    Aadd9 C#m7 F#m
    ทำให้รู้ว่าเธอมีค่ามากแค่ไหน
    Bm E
    จะอยู่ตรงนี้ถึงแม้ว่าฉันจะไม่เหลือใคร
    ( ซ้ำ * )

    SOLO : Dmaj7 / Aadd9 / Bm7 / Aadd9 /
    Dmaj7 / Aadd9 / Bm7 / E / Aadd9
    Bm7 E
    จะรอแค่เธอถึงแม้ใครหาว่างมงาย
    ( ซ้ำ * )

    ( ไม่ว่านานเท่าไร ยังมีเพียงเธอ
    Dmaj7 C#m F#m
    ไม่ผิดใช่ไหมที่ฉันมีเธอคนเดียวในหัวใจ
    G E G Aadd9
    ไม่ว่ายังไง....ฉันก็จะรักเธอ
    G Aadd9
    ฮึม....ฮึม )
  • BeMe
    Guest
  • 14 พ.ย.2550,11:31น.
    Song : งมงาย
    Artist : Bodyslam

    Intro /Asus2/Asus2/

    Dmaj7 Asus2
    เนิ่นนานเท่าไรไม่รู้ที่รอเธอ ฉันจำไม่ได้
    Dmaj7 Asus2
    ที่จำได้ดีคือฉันมีเพียงเธอ แม้นานสักแค่ไหน
    Bm E Asus2 C#m F#m
    เธออยู่ที่ใดยังรักกันไหม ฉันไม่รู้ แต่ที่รู้คือฉันนั้นยังไม่เปลี่ยนใจ
    Bm E
    ยังอยู่ตรงนี้ถึงแม้จะเหงาและเดียวดาย

    Dmaj7 C#m
    * ไม่ผิดใช่ไหมที่ฉันจะยังรักเธอ
    Bm E
    ไม่ว่าเธอกับฉันวันนี้จะอยู่แสนไกล
    Dmaj7 C#m F#m
    ก็ยังจะรออย่างมีความหวัง ยังคงไม่เปลี่ยนไป
    Bm E
    ไม่ว่าใครจะมองว่าฉันงมงาย ฉันก็ยังเหมือนเดิม

    Intru / Dmaj7/Asus2/

    Dmaj7 Asus2
    เมื่อเธอมีทางชีวิตไม่เหมือนฉัน ฉันห้ามไม่ได้
    Dmaj7 Asus2
    แต่ฉันจะมีชีวิตเพื่อรอเธอ แม้วันสุดท้าย
    Bm E
    เกิดมาได้เจอคนที่ตามหามานานแสนนาน
    Asus2 C#m F#m
    ทำให้รู้ว่าเธอมีค่ามากแค่ไหน
    Bm E
    จะอยู่ตรงนี้ถึงแม้ว่าฉันจะไม่เหลือใคร

    (ซ้ำ *)

    Solo / Dmaj7/Asus2/Bm7/Asus2/
    / Dmaj7/Asus2/Bm7 E/Asus2

    Bm7 E
    จะรอแค่เธอถึงแม้ใครหาว่างมงาย

    Dmaj7 C#m Bm E
    ไม่ผิดใช่ไหมที่ฉันจะยังรักเธอ ไม่ว่าเธอกับฉันวันนี้จะอยู่แสนไกล
    Dmaj7 C#m F#m
    ก็ยังจะรออย่างมีความหวัง ยังคงไม่เปลี่ยนไป
    Bm7 E
    ไม่ว่านานเท่าไรยังมีเพียงเธอ
    Dnaj7 C#m F#m
    ไม่ผิดใช่ไหมที่ฉันมีเธอคนเดียวในหัวใจ
    G E G Asus2 G Asus2
    ไม่ว่ายังไง ฉันก็จะรักเธอ

    ------------------------------
    ดูดมานาน ขอซะหน่อย
  • ยอร์ช
    Guest
  • 7 ก.พ.2551,23:11น.
    งมงาย 
    Artist : Bodyslam

    Dmaj7 A
    เนิ่นนานเท่าไรไม่รู้ที่รอเธอ ฉันจำไม่ได้
    Dmaj7 A
    ที่จำได้ดีคือฉันมีเพียงเธอ แม้นานสักแค่ไหน

    Bm E A F#m
    เธออยู่ที่ใดยังรักกันไหม ฉันไม่รู้ แต่ที่รู้คือฉันนั้นยังไม่เปลี่ยนใจ
    Bm E
    ยังอยู่ตรงนี้ถึงแม้จะเหงาและเดียวดาย

    Dmaj7 C#m Bm E
    * ไม่ผิดใช่ไหมที่ฉันจะยังรักเธอ ไม่ว่าเธอกับฉันวันนี้จะอยู่แสนไกล
    Dmaj7 C#m F#m
    ก็ยังจะรออย่างมีความหวัง ยังคงไม่เปลี่ยนไป
    Bm E Dmaj7/A
    ไม่ว่าใครจะมองว่าฉันงมงาย ฉันก็ยังเหมือนเดิม

    Dmaj7 A
    เมื่อเธอมีทางชีวิตไม่เหมือนฉัน ฉันห้ามไม่ได้
    Dmaj7 A
    แต่ฉันจะมีชีวิตเพื่อรอเธอ แม้วันสุดท้าย

    Bm E A F#m
    เกิดมาได้เจอคนที่ตามหามานานแสนนาน ทำให้รู้ว่าเธอมีค่ามากแค่ไหน
    Bm E
    จะอยู่ตรงนี้ถึงแม้ว่าฉันจะไม่เหลือใคร

    (ซ้ำ *)

    Bm E
    จะรอแค่เธอถึงแม้ใครหาว่างมงาย
    Dmaj7 C#m Bm E
    ไม่ผิดใช่ไหมที่ฉันจะยังรักเธอ ไม่ว่าเธอกับฉันวันนี้จะอยู่แสนไกล
    Dmaj7 C#m F#m
    ก็ยังจะรออย่างมีความหวัง ยังคงไม่เปลี่ยนไป
    Bm E
    ไม่ว่านานเท่าไรยังมีเพียงเธอ (ไม่ผิดใช่ไหมที่ฉันมีเธอคนเดียวในหัวใจ)

    ไม่ว่ายังไง ฉันก็จะรักเธอ



    (ปล.ผิดตรงไหนช่วยกันแก้น่ะครับ)

  • 27 ต.ค.2556,12:23น.
    งมงาย
    INTRO : Asus2 / Asus2

    Dmaj7
    เนิ่นนานเท่าไรไม่รู้ที่รอเธอ
    Asus2
    ฉันจำไม่ได้
    Dmaj7
    ที่จำได้ดี คือฉันมีเพียงเธอ
    Asus2
    แม้นานสักแค่ไหน

    Bm7 E
    เธออยู่ที่ใด ยังรักกันไหม ฉันไม่รู้
    A C#m7 F#m7
    แต่ที่รู้ คือฉันนั้นยังไม่เปลี่ยนใจ
    Bm7 E
    ยังอยู่ตรงนี้ ถึงแม้จะเหงาและเดียวดาย

    Dmaj7 C#m
    * ไม่ผิดใช่ไหม ที่ฉันจะยังรักเธอ
    Bm E
    ไม่ว่าเธอกับฉันวันนี้จะอยู่แสนไกล
    Dmaj7
    ก็ยังจะรอ อย่างมีความหวัง
    C#m7 F#m
    ยังคงไม่เปลี่ยนไป
    Bm7 E
    ไม่ว่าใครจะมองว่าฉันงมงาย ฉันก็ยังเหมือนเดิม

    Instrument : Dmaj7 / Asus2

    Dmaj7
    เมื่อเธอมีทางชีวิต ไม่เหมือนฉัน
    Asus2
    ฉันห้ามไม่ได้
    Dmaj7
    แต่ฉันจะมีชีวิตเพื่อรอเธอ
    Asus2
    แม้วันสุดท้าย

    Bm7 E
    เกิดมาได้เจอ คนที่ตามหามานานแสนนาน
    A C#m7 F#m
    ทำให้รู้ว่าเธอมีค่ามากแค่ไหน
    Bm7 E
    จะอยู่ตรงนี้ ถึงแม้ว่าฉันจะไม่เหลือใคร

    Repeat ( * )

    Instrument : Dmaj7 / Asus2 / Bm7 / Asus2
    Dmaj7 / Asus2 / Bm7 E / Asus2

    Bm E
    จะรอแค่เธอ ถึงแม้ใครหาว่างมงาย
    Dmaj7 C#m
    ไม่ผิดใช่ไหม ที่ฉันจะยังรักเธอ
    Bm7 E
    ไม่ว่าเธอกับฉันวันนี้ จะอยู่แสนไกล
    Dmaj7
    ก็ยังจะรออย่างมีความหวัง
    C#m F#m7
    ยังคงไม่เปลี่ยนไป
    Bm7 E
    ไม่ว่านานเท่าไร ยังมีเพียงเธอ

    Dmaj7
    ไม่ผิดใช่ไหม
    C#m F#m
    ที่ฉันมีเธอ คนเดียวในหัวใจ
    G E
    ไม่ว่ายังไง....ฉันก็จะรักเธอ ฮืม....

    Outro : G / Asus2 / G / Asus2
  • 22 ก.ย.2557,01:35น.
    INTRO :	Aadd9 / Aadd9
    
    Dmaj7                                     Aadd9
    เนิ่นนานเท่าไรไม่รู้ที่รอเธอ  ฉันจำไม่ได้
    Dmaj7                                          Aadd9
    ที่จำได้ดีคือฉันมีเพียงเธอ  แม้นานสักแค่ไหน
                    Bm                        E
    เธออยู่ที่ใดยังรักกันไหม  ฉันไม่รู้
    Aadd9        C#m7        F#m
    แต่ที่รู้  คือฉันนั้นยังไม่เปลี่ยนใจ
                    Bm                               E
    ยังอยู่ตรงนี้ถึงแม้จะเหงาและเดียวดาย
    
    	Dmaj7              C#m7
    *ไม่ผิดใช่ไหม  ที่ฉันจะยังรักเธอ
                    Bm7                          E
    ไม่ว่าเธอกับฉันวันนี้จะอยู่แสนไกล
                    Dmaj7
    ก็ยังจะรออย่างมีความหวัง
         C#m7        F#m
    ยังคงไม่เปลี่ยนไป
                    Bm7                     E
    ไม่ว่าใครจะมองว่าฉันงมงาย
                    Dmaj7 Aadd9
    ฉันก็ยังเหมือนเดิม
    	Dmaj7                           Aadd9
    เมื่อเธอมีทางชีวิตไม่เหมือนฉัน  ฉันห้ามไม่ได้
    Dmaj7                                     Aadd9
    แต่ฉันจะมีชีวิตเพื่อรอเธอ  แม้วันสุดท้าย
                     Bm7                            E
    เกิดมาได้เจอคนที่ตามหามานานแสนนาน
    Aadd9     C#m7     F#m
    ทำให้รู้ว่าเธอมีค่ามากแค่ไหน
    Bm                         E
    จะอยู่ตรงนี้ถึงแม้ว่าฉันจะไม่เหลือใคร
    
    ( ซ้ำ * )
    
    ดนตรี: Dmaj7 / Aadd9 / Bm7 / Aadd9 /
                Dmaj7 / Aadd9 / Bm7 / E / Aadd9
    
    Bm7                      E
    จะรอแค่เธอถึงแม้ใครหาว่างมงาย
    
    (ซ้ำ *)
    
    (ไม่ว่านานเท่าไร ยังมีเพียงเธอ)
    
    Dmaj7              C#m      F#m
    ไม่ผิดใช่ไหมที่ฉันมีเธอคนเดียวในหัวใจ
    G        E            G   Aadd9
    ไม่ว่ายังไง...ฉันก็จะรักเธอ
    G      Aadd9
    ฮึม...ฮึม )
  • 22 ก.ย.2557,01:35น.
    INTRO :	Aadd9 / Aadd9
    
    Dmaj7                                     Aadd9
    เนิ่นนานเท่าไรไม่รู้ที่รอเธอ  ฉันจำไม่ได้
    
    Dmaj7                                          Aadd9
    ที่จำได้ดีคือฉันมีเพียงเธอ  แม้นานสักแค่ไหน
    	
                    Bm                        E
    เธออยู่ที่ใดยังรักกันไหม  ฉันไม่รู้
    
    Aadd9        C#m7        F#m
    แต่ที่รู้  คือฉันนั้นยังไม่เปลี่ยนใจ
    	
                    Bm                               E
    ยังอยู่ตรงนี้ถึงแม้จะเหงาและเดียวดาย
    
    	Dmaj7              C#m7
    *ไม่ผิดใช่ไหม  ที่ฉันจะยังรักเธอ
    	
                    Bm7                          E
    ไม่ว่าเธอกับฉันวันนี้จะอยู่แสนไกล
    	
                    Dmaj7
    ก็ยังจะรออย่างมีความหวัง
      
       C#m7        F#m
    ยังคงไม่เปลี่ยนไป
    	
                    Bm7                     E
    ไม่ว่าใครจะมองว่าฉันงมงาย
    	
                    Dmaj7 Aadd9
    ฉันก็ยังเหมือนเดิม
    
    	Dmaj7                                             Aadd9
    เมื่อเธอมีทางชีวิตไม่เหมือนฉัน  ฉันห้ามไม่ได้
    
    Dmaj7                                     Aadd9
    แต่ฉันจะมีชีวิตเพื่อรอเธอ  แม้วันสุดท้าย
    	
                     Bm7                            E
    เกิดมาได้เจอคนที่ตามหามานานแสนนาน
    
    Aadd9     C#m7     F#m
    ทำให้รู้ว่าเธอมีค่ามากแค่ไหน
    
    Bm                         E
    จะอยู่ตรงนี้ถึงแม้ว่าฉันจะไม่เหลือใคร
    
    ( ซ้ำ * )
    
    Solo: Dmaj7 / Aadd9 / Bm7 / Aadd9 /
    Dmaj7 / Aadd9 / Bm7 / E / Aadd9
    Bm7                      E
    
    จะรอแค่เธอถึงแม้ใครหาว่างมงาย
    
    ( ซ้ำ * )
    
    ( ไม่ว่านานเท่าไร  ยังมีเพียงเธอ
    
    Dmaj7              C#m      F#m
    ไม่ผิดใช่ไหมที่ฉันมีเธอคนเดียวในหัวใจ
    
    G        E            G   Aadd9
    ไม่ว่ายังไง....ฉันก็จะรักเธอ
    
    G      Aadd9
    ฮึม....ฮึม )
1

ขอเชิญร่วมแสดงความคิดเห็นครับ

คลิกที่รูป เพื่อแทรกรูปลงในข้อความ
  • Member :
    username
    password
  • Not a member :
    name
    email