Loading

คอร์ดเพลง ซมซาน

โลโซ

อัพโหลดคลิปเพลงนี้ที่คุณ ร้อง/เล่น ด้วยตัวคุณเอง ได้แล้ววันนี้
ระหว่างการทดสอบระบบหากพบข้อผิดพลาด กรุณาแจ้งที่นี่
Intro : Ab/Fm/Db/Eb ( 2 ครั้ง )

Ab Fm Db Eb
เกิดมาไม่เคยเจอ ใครเหมือนเธอ หลับฝันละเมอ ภาพเธอคอยหลอนทุกคืน
Ab Fm Db Eb
หลับลงคราใด อยากนอนไม่ยอมตื่น ก็ทุกค่ำคืน เจอเธอที่ปลายฟ้าไกล

Ab Fm Db Eb
ก็ได้แต่เพ้อ แต่ฝันลมลม ก็หลงชื่นชม โดยเธอไม่รู้ตัว
Ab Fm Db Eb
เจอเธอทีไร จิตใจเต้นรัว ฉันกลัวฉันกลัว กลัวเธอไม่สนใจ

Fm Cm Db Eb
* อยากเดินเข้าไป บอกว่ารักเธอ เวลาที่เจอที่เธอส่งยิ้มมา
Fm Cm Db Eb Ab
เหมือนดั่งโลกนี้ สดใสขึ้นทันตา ในช่วงเวลาที่ต้องการใคร เข้าใจสักคน

Instru : Ab/Fm/Db/Eb ( 2 ครั้ง )

Fm Cm Db Eb
อยากเดินเข้าไป บอกว่ารักเธอ เวลาที่เจอที่เธอส่งยิ้มมา
Fm Cm Db Eb
เหมือนดั่งโลกนี้ สดใสขึ้นทันตา ในช่วงเวลาที่ต้องการใคร

Ab Fm Db Eb
หากเธอมีใจ ก็บอกกันสักหน่อย อย่าให้ฉันคอย คอยเธออย่างนี้เลย
Ab Fm Db Eb
ให้คอยนานๆ มันซมซานรู้ไหมเอ่ย ยิ่งเธอทำเฉย ฉันเองจะบ้าตาย

( ซ้ำ * )

Ending : Ab/Fm/Db/Eb ( 2 ครั้ง )
ดาวน์โหลด Full Song
กด *424243181696584
กด *424243181696584
ดาวน์โหลด Truetone
กด *424218181696584
กด *424218181696584
กด *424218181696584
* อัตราค่าบริการดาวน์โหลด Fullsong, Truetone, Poly, Mono : 35 บาท/เพลง
ส่งเพลงนี้ให้เพื่อน
วันที่โพสต์ : 13 ม.ค.2547,21:35น.
จำนวนผู้ชม : 1139005 คน / แสดงความคิดเห็น : 214 ครั้ง
โพสต์โดย


จาก: Zull
Guest
เพลงแนะนำ
เพลงฮิต
เลือกแสดงเฉพาะ :

  • tod 035335960
    Guest
  • 2 มี.ค.2547,19:44น.
     
    ((อัพเดทแหล่งทดลองฟัง)) ((อัพเดทคอร์ดกีต้าร์)) ((ขอคอร์ดกีต้าร์))
  • tod 035335960
    Guest
  • 2 มี.ค.2547,19:44น.
     
    ((อัพเดทแหล่งทดลองฟัง)) ((อัพเดทคอร์ดกีต้าร์)) ((ขอคอร์ดกีต้าร์))
  • Loso
    Guest
  • 19 มิ.ย.2547,19:42น.
    okปะคับ
    ((อัพเดทคอร์ดกีต้าร์))
  • 23 ก.ค.2548,11:05น.
    ซมซาน 
    Artist : โลโซ


    Intro : G/Em/C /D (2 ครั้ง )

    G Em C D
    เกิดมาไม่เคยเจอ ใครเหมือนเธอ หลับฝันละเมอ ภาพเธอคอยหลอนทุกคืน
    G Em C D
    หลับลงคราใด อยากนอนไม่ยอมตื่น ก็ทุกค่ำคืน เจอเธอที่ปลายฟ้าไกล

    G Em C D
    ก็ได้แต่เพ้อ แต่ฝันลมลม ก็หลงชื่นชม โดยเธอไม่รู้ตัว
    G Em C D
    เจอเธอทีไร จิตใจเต้นรัว ฉันกลัวฉันกลัว กลัวเธอไม่สนใจ

    Em Bm C D
    * อยากเดินเข้าไป บอกว่ารักเธอ เวลาที่เจอที่เธอส่งยิ้มมา
    Em Bm C D G
    เหมือนดั่งโลกนี้ สดใสขึ้นทันตา ในช่วงเวลาที่ต้องการใคร เข้าใจสักคน

    Instru : G/Em/C/D (2 ครั้ง )

    Em Bm C D
    อยากเดินเข้าไป บอกว่ารักเธอ เวลาที่เจอที่เธอส่งยิ้มมา
    Em Bm C D
    เหมือนดั่งโลกนี้ สดใสขึ้นทันตา ในช่วงเวลาที่ต้องการใคร

    G Em C D
    หากเธอมีใจ ก็บอกกันสักหน่อย อย่าให้ฉันคอย คอยเธออย่างนี้เลย
    G Em C D
    ให้คอยนานๆ มันซมซานรู้ไหมเอ่ย ยิ่งเธอทำเฉย ฉันเองจะบ้าตาย

    ( ซ้ำ * )

    Ending : G/Em/C/D ( 2 ครั้ง

    อยากให้เล่นคอร์ดที่ถูกกันเลยส่งมาให้
  • KING
    Guest
  • 23 ก.ย.2548,18:16น.
    INTRO: ซมซานนะคราบผม:โดย  KING
    4: ---------------------6-------------------------------------------------6---------------------------6
    5: ------------------------8--------8--6--3--4---------4/8---------------8-----6-----------8------8--5
    6 :-----4------4/8------------------------------------------------------------------------------------------


    99.99% นะคราบผม
    ถูกผิดยังไงอย่าว่ากันนะคราบผม ผมอายุแค่ 14 ปีเองนะ
  • ติ้ด เด็กยะลา
    Guest
  • 28 ม.ค.2549,22:46น.
    intro  นี้สำหรับกีตาร์ไฟฟ้า ดีดทีเดียวใช่ เอฟเฟ็ก ลากยาวตลอด

    1----------------------------------------------------------
    2----------------------------------------------------------
    3----------------------------------------------------------
    4----------------------------------------------------------
    5-----------------7--7-6/2--2--3--3h4--4/6--5----
    6--3--3h4--4/7----------------------------------------

    แก้ไขหน่อยน่ะคับ ผิดนิดหน่อย
  • ยันต์
    Guest
  • 9 ก.พ.2549,15:19น.
    หวัดดีครับ เอาท่อนกลางซมซานมาฝาก  รับรองตรงเปะ  แต่ว่าเล่นในคีย์  A นะครับ ถ้าใครเล่น Ab ก็เอามาแปลงเอานะครับหรือไม่ก็ลองเลื่อนลงมาอีกเพลสหนึ่งก็ได้แล้วละครับ
    ซมซาน
    4------------------7---------------------------------7----------------------------------7-------------
    5-----------------------9----9/4---5--------7/9------9/7---------7--------7--9------9---------
    6--5------7/9------------------------------------------------------------7/9------------------------
    .............................................................................................................................................
    2---------------------------------10-------------------------------------10---------------------------
    3-------------------------------------------11----------------9--9^11------11--/--6--------------
    4----7---------------9/11-----------------------------------------------------------------------------
    ..............................................................................................................................................
    1-----------------------------------------------------------------------------------------9-------------------
    2----------------------------10---------------------------------------------------10------12--10------10
    3------7----------/11-----------------11/9-------------------9---9/11-------------------------11----

    เล่นตามจังหวะของเพลงเลยนะครับ ฟังไปด้วยเล่นไปด้วยยิ่งจะสนุก พึ่งลงเป็นครั้งแรก ฝากเนื่อฝากตัวด้วยนะครับ ( ต้องการไรเพิ่มเติม ติดต่อทางเมลล์นะครับ)
  • ยันต์
    Guest
  • 9 ก.พ.2549,15:27น.
    อยากลงท่อนสุดท้ายจังแต่มันยาวมาก   เอาเป็ฯว่าเอาท่อนกลางให้คร่องก่อนนะครับ
    อยากได้เพลง เสคบอกได้ครับ
    1-------------
    2------------
    3-------------------
  • yukjh
    Guest
  • 20 มี.ค.2549,12:52น.
    ซมซาน 
    Artist : โลโซ


    Intro : G/Em/C /D (2 ครั้ง )

    G Bm C D
    เกิดมาไม่เคยเจอ ใครเหมือนเธอ หลับฝันละเมอ ภาพเธอคอยหลอนทุกคืน
    G Bm C D
    หลับลงคราใด อยากนอนไม่ยอมตื่น ก็ทุกค่ำคืน เจอเธอที่ปลายฟ้าไกล

    G Em C D
    ก็ได้แต่เพ้อ แต่ฝันลมลม ก็หลงชื่นชม โดยเธอไม่รู้ตัว
    G Em C D
    เจอเธอทีไร จิตใจเต้นรัว ฉันกลัวฉันกลัว กลัวเธอไม่สนใจ

    Em Bm C D
    * อยากเดินเข้าไป บอกว่ารักเธอ เวลาที่เจอที่เธอส่งยิ้มมา
    Bm Em C D G
    เหมือนดั่งโลกนี้ สดใสขึ้นทันตา ในช่วงเวลาที่ต้องการใคร เข้าใจสักคน

    Instru : G/Em/C/D (2 ครั้ง )

    Em Bm C D
    อยากเดินเข้าไป บอกว่ารักเธอ เวลาที่เจอที่เธอส่งยิ้มมา
    Em Bm C D
    เหมือนดั่งโลกนี้ สดใสขึ้นทันตา ในช่วงเวลาที่ต้องการใคร

    G Em C D
    หากเธอมีใจ ก็บอกกันสักหน่อย อย่าให้ฉันคอย คอยเธออย่างนี้เลย
    G Em C D
    ให้คอยนานๆ มันซมซานรู้ไหมเอ่ย ยิ่งเธอทำเฉย ฉันเองจะบ้าตาย

    ( ซ้ำ * )

    Ending : G/Em/C/D ( 2 ครั้ง





  • รุต สามเสน
    Guest
  • 12 เม.ย.2549,14:21น.
    Soloท่อนกลาง
    4|-------------6------------------------6-----------------------6-----6
    5|----------------8-8/3-3/4---6/8----6---8---------6h8-----8---
    6|--4--4h6/8---------------------------------------6h8--------------
    ----------------------------------------------------------------------------------------------------------------
    2|-------------9--------------9--------------------9----------------9-11-9p7
    3|----------------10--8h10----10/5-6--8/10----10-8--8-10--------------10-8-8/10
    4|-6h8/10


  • มือกีตาร์ Zbelt เด็ก ญ.ส.
    Guest
  • 25 เม.ย.2549,14:15น.
    4----------6--------------------------6-8-8/10^ครึ่งเสียง-8-6-5--------------------------6-8/10----
    5------------6/8-8/3-3-4-4-6/8---------------------------------6-6--------------6-8-6--------------
    6-4-6/8------------------------------------------------------------------6-6-4-6/8----------------------

    1----------------11------------------------------------------------------------------------------------------
    2--------9-11^----11^11-ขึ้นเเล้วลง-9---------------------------------------------------------------
    3-8-10-------------------------------------10P8----8-----8H10-10P8--------------------------8
    4----------------------------------------------------10---10-----------------10-8-6H8-6---8/10---
    5------------------------------------------------------------------------------------------------8--------
    ช่วงนี้ใช่ความเรวนิดนึง
    1--------------8h9p8----------------8h9p8---------------8h9p8--------------8-/16-13p11-13
    2--------8-9-----------9-8-----8-9-----------9-8----8-9-----------9-8----8-9-----------------------
    3----10----------------------10---------------------10--------------------10---------------------------
    4-11-------------------------------------------------------------------------------------------------------

    2-13p11-9-11p9---------------------------------------------9h11p9----9
    3---------------------8-10p8---------------------------8h10------------10
    4-------------------------------8-10p8----------8h10-----------------------
    5------------------------------------------8-8h11------------------------------- จบละ OUTRO เราแกะเองนะ ผิดตรงๆไหนช่วยๆกันแก้
  • มือกีตาร์ Zbelt เด็ก ญ.ส.
    Guest
  • 25 เม.ย.2549,14:29น.
    อีกนิดนึงตรงท่อนฮุคมีเกาด้วยอะลองดูนะ
    1-8--------8--8-11-8h11p8---------8---8-11
    2---9----9--9-------------------9----9---9------
    3-----10---------------------------10-------------
    ปรามานนี้อะนี้คอดเเรกของท่อนฮุคนะพอเล่นนี้เส็จก็เปลี่ยนไปจับCmจับสามสายล่างแล้วดีดตามนี้หมดเลย แล้วก็คอดDb กดเหมือนBbเเต่เลื่อนมาช่องเปนช่องสี่ แล้วก็คอดEb เลื่อนมาช่องหกนะ ลองเล่นกันดู
  • รุตสามเสน
    Guest
  • 5 พ.ค.2549,11:00น.
    เอาไปเลย
    เพลง ซมซาน
    โดย โลโซ
    Intro : G/Em/C /D (2 ครั้ง )
    4|---------------6--------------------------6
    5|-----------------8--8/3-3-3/4--6/8---6-------6
    6|-4--4h6/8-----------------------------------6/8--8/4-4
    G Bm C D
    เกิดมาไม่เคยเจอ ใครเหมือนเธอ หลับฝันละเมอ ภาพเธอคอยหลอนทุกคืน
    G Bm C D
    หลับลงคราใด อยากนอนไม่ยอมตื่น ก็ทุกค่ำคืน เจอเธอที่ปลายฟ้าไกล

    G Em C D
    ก็ได้แต่เพ้อ แต่ฝันลมลม ก็หลงชื่นชม โดยเธอไม่รู้ตัว
    G Em C D
    เจอเธอทีไร จิตใจเต้นรัว ฉันกลัวฉันกลัว กลัวเธอไม่สนใจ

    Em Bm C D
    * อยากเดินเข้าไป บอกว่ารักเธอ เวลาที่เจอที่เธอส่งยิ้มมา
    Bm Em C D G
    เหมือนดั่งโลกนี้ สดใสขึ้นทันตา ในช่วงเวลาที่ต้องการใคร เข้าใจสักคน

    Instru : G/Em/C/D (2 ครั้ง )
    Solo
    4|-------------6------------------------6-----------------------6-----6
    5|----------------8-8/3-3/4---6/8----6---8---------6h8-----8---
    6|--4--4h6/8---------------------------------------6h8--------------
    ----------------------------------------------------------------------------------------------------------------
    2|-------------9--------------9--------------------9----------------9-11-9p7
    3|----------------10--8h10----10/5-6--8/10----10-8--8-10--------------10-8-8/10
    4|-6h8/10

    Em Bm C D
    อยากเดินเข้าไป บอกว่ารักเธอ เวลาที่เจอที่เธอส่งยิ้มมา
    Em Bm C D
    เหมือนดั่งโลกนี้ สดใสขึ้นทันตา ในช่วงเวลาที่ต้องการใคร

    G Em C D
    หากเธอมีใจ ก็บอกกันสักหน่อย อย่าให้ฉันคอย คอยเธออย่างนี้เลย
    G Em C D
    ให้คอยนานๆ มันซมซานรู้ไหมเอ่ย ยิ่งเธอทำเฉย ฉันเองจะบ้าตาย

    ( ซ้ำ * )

    Ending : G/Em/C/D ( 2 ครั้ง)
    4----------6--------------------------6-8-8/10^ครึ่งเสียง-8-6-5--------------------------6-8/10----
    5------------6/8-8/3-3-4-4-6/8---------------------------------6-6--------------6-8-6--------------
    6-4-6/8------------------------------------------------------------------6-6-4-6/8----------------------

    1----------------11------------------------------------------------------------------------------------------
    2--------9-11^----11^11-ขึ้นเเล้วลง-9---------------------------------------------------------------
    3-8-10-------------------------------------10P8----8-----8H10-10P8--------------------------8
    4----------------------------------------------------10---10-----------------10-8-6H8-6---8/10---
    5------------------------------------------------------------------------------------------------8--------

    1--------------8h9p8----------------8h9p8---------------8h9p8--------------8-/16-13p11-13
    2--------8-9-----------9-8-----8-9-----------9-8----8-9-----------9-8----8-9-----------------------
    3----10----------------------10---------------------10--------------------10---------------------------
    4-11-------------------------------------------------------------------------------------------------------

    2-13p11-9-11p9---------------------------------------------9h11p9----9
    3---------------------8-10p8---------------------------8h10------------10
    4-------------------------------8-10p8----------8h10-----------------------
    5------------------------------------------8-8h11-------------------------------
  • lnwNoname
    Guest
  • 21 ก.พ.2550,19:08น.
    ซมซาน 
    Artist : โลโซ


    Intro : G/Em/C /D (2 ครั้ง )

    G Em C D
    เกิดมาไม่เคยเจอ ใครเหมือนเธอ หลับฝันละเมอ ภาพเธอคอยหลอนทุกคืน
    G Em C D
    หลับลงคราใด อยากนอนไม่ยอมตื่น ก็ทุกค่ำคืน เจอเธอที่ปลายฟ้าไกล

    G Em C D
    ก็ได้แต่เพ้อ แต่ฝันลมลม ก็หลงชื่นชม โดยเธอไม่รู้ตัว
    G Em C D
    เจอเธอทีไร จิตใจเต้นรัว ฉันกลัวฉันกลัว กลัวเธอไม่สนใจ

    Em Bm C D
    * อยากเดินเข้าไป บอกว่ารักเธอ เวลาที่เจอที่เธอส่งยิ้มมา
    Em Bm C D G
    เหมือนดั่งโลกนี้ สดใสขึ้นทันตา ในช่วงเวลาที่ต้องการใคร เข้าใจสักคน

    Instru : G/Em/C/D (2 ครั้ง )

    Em Bm C D
    อยากเดินเข้าไป บอกว่ารักเธอ เวลาที่เจอที่เธอส่งยิ้มมา
    Em Bm C D
    เหมือนดั่งโลกนี้ สดใสขึ้นทันตา ในช่วงเวลาที่ต้องการใคร

    G Em C D
    หากเธอมีใจ ก็บอกกันสักหน่อย อย่าให้ฉันคอย คอยเธออย่างนี้เลย
    G Em C D
    ให้คอยนานๆ มันซมซานรู้ไหมเอ่ย ยิ่งเธอทำเฉย ฉันเองจะบ้าตาย

    ( ซ้ำ * )

    Ending : G/Em/C/D ( 2 ครั้ง )

  • ไรว๊ะ!!!
    Guest
  • 17 มี.ค.2550,16:28น.

    4----------6--------------------------6-8-8/10^ครึ่งเสียง-8-6-5--------------------------6-8/10----
    5------------6/8-8/3-3-4-4-6/8---------------------------------6-6--------------6-8-6--------------
    6-4-6/8------------------------------------------------------------------6-6-4-6/8----------------------

    1----------------11------------------------------------------------------------------------------------------
    2--------9-11^----11^11-ขึ้นเเล้วลง-9---------------------------------------------------------------
    3-8-10-------------------------------------10P8----8-----8H10-10P8--------------------------8
    4----------------------------------------------------10---10-----------------10-8-6H8-6---8/10---
    5------------------------------------------------------------------------------------------------8--------

    1--------------8h9p8----------------8h9p8---------------8h9p8--------------8-/16-13p11-13
    2--------8-9-----------9-8-----8-9-----------9-8----8-9-----------9-8----8-9-----------------------
    3----10----------------------10---------------------10--------------------10---------------------------
    4-11-------------------------------------------------------------------------------------------------------

    2-13p11-9-11p9---------------------------------------------9h11p9----9
    3---------------------8-10p8---------------------------8h10------------10
    4-------------------------------8-10p8----------8h10-----------------------
    5------------------------------------------8-8h11
  • น้องเขียง
    Guest
  • 8 ก.ย.2550,11:17น.
    มีแค่4คอร์ดง่ายๆเอง D/Bm/Em/A
  • จาตุรันต์
    Guest
  • 25 ก.ย.2550,10:37น.


    Guitar1
    Intro : Ab/Fm/Db/Eb ( 2 Time )

    Guitar2
    4|---------------6--------------------------6
    5|-----------------8--8/3-3-3/4--6/8---6-------6
    6|-4--4h6/8-----------------------------------6/8--8/4-4

    Ab Fm Db Eb
    เกิดมาไม่เคยเจอ ใครเหมือนเธอ หลับฝันละเมอ ภาพเธอคอยหลอนทุกคืน
    Ab Fm Db Eb
    หลับลงคราใด อยากนอนไม่ยอมตื่น ก็ทุกค่ำคืน เจอเธอที่ปลายฟ้าไกล

    Ab Fm Db Eb
    ก็ได้แต่เพ้อ แต่ฝันลมลม ก็หลงชื่นชม โดยเธอไม่รู้ตัว
    Ab Fm Db Eb
    เจอเธอทีไร จิตใจเต้นรัว ฉันกลัวฉันกลัว กลัวเธอไม่สนใจ

    Fm Cm Db Eb
    * อยากเดินเข้าไป บอกว่ารักเธอ เวลาที่เจอที่เธอส่งยิ้มมา
    Fm Cm Db Eb Ab
    เหมือนดั่งโลกนี้ สดใสขึ้นทันตา ในช่วงเวลาที่ต้องการใคร เข้าใจสักคน

    4|-------------6------------------------6-----------------------6-----6
    5|----------------8-8/3-3/4---6/8----6---8---------6h8-----8---
    6|--4--4h6/8---------------------------------------6h8--------------
    ----------------------------------------------------------------------------------------------------------------
    2|-------------9--------------9--------------------9----------------9-11-9p7
    3|----------------10--8h10----10/5-6--8/10----10-8--8-10--------------10-8-8/10
    4|-6h8/10


    Fm Cm Db Eb
    อยากเดินเข้าไป บอกว่ารักเธอ เวลาที่เจอที่เธอส่งยิ้มมา
    Fm Cm Db Eb
    เหมือนดั่งโลกนี้ สดใสขึ้นทันตา ในช่วงเวลาที่ต้องการใคร

    Ab Fm Db Eb
    หากเธอมีใจ ก็บอกกันสักหน่อย อย่าให้ฉันคอย คอยเธออย่างนี้เลย
    Ab Fm Db Eb
    ให้คอยนานๆ มันซมซานรู้ไหมเอ่ย ยิ่งเธอทำเฉย ฉันเองจะบ้าตาย

    Outtro: Ab/Fm/Db/Eb ( 2 Time )
    h=hammer on
    /=slide
    p=pull off
    โซโล่ช่วงสุดท้ายผมยังไม่ได้นะใครได้ลงเลยนี่มารวมให้แล้วทำให้เหมือนแล้วนะ
    ((ขอคอร์ดกีต้าร์))
  • .....
    Guest
  • 13 พ.ย.2550,20:20น.


    1/-----------3333----------33----------------
    2/---------33----33--------33--------------
    3/--------33----333-------33----------------
    4/---------333333--------33----------------
    5/-----------------33-------33----------------
    6/-----------------33-------33----------------
    1/-----------------33-------33-------------
    2/-----------------33-------33--------------
    3/-------------------33---33----------------
    4/---------------------3333----------------
1

ขอเชิญร่วมแสดงความคิดเห็นครับ

คลิกที่รูป เพื่อแทรกรูปลงในข้อความ
  • Member :
    username
    password
  • Not a member :
    name
    email