Loading

คอร์ดเพลง ดาว

พอส (Pause)

อัพโหลดคลิปเพลงนี้ที่คุณ ร้อง/เล่น ด้วยตัวคุณเอง ได้แล้ววันนี้
ระหว่างการทดสอบระบบหากพบข้อผิดพลาด กรุณาแจ้งที่นี่
INTRO : C#/Fm/Bbm/Ebm/G#(2 times)

C# Fm
หากคืนนี้ มีดาวอยู่ล้านดวง
Ebm G#
ฉันขอได้ไหมสักดวงหนึ่ง ช่วยฟังฉันที
C# Fm
เพราะว่าคืนนี้ ฉันมีเรื่องร้อนใจ
Ebm G#
อยากอธิษฐานและชอดวงดาวให้ ช่วยฉันสักที

Fm Bbm
* เนื่องจากตอนนี้ ฉันรู้สึกจิตใจมันอ่อนไหว
Ebm G#
อยากจะรู้ว่าเขาเป็นยังไง จากคำพูดวันนี้

Fm/Bbm Ebm/G#
** เพราะฉันเพิ่งบอกรักไป และเขาก็รับฟัง
Fm Bbm Ebm
ทุกอย่างทุกถ้อยคำ เหมือนความฝัน
G# Fm/Bbm
แต่ฉันเองก็ไม่อาจแน่ใจ
Ebm G# Fm Bbm
พรุ่งนี้เรื่องของเรา จะสุขหรือแสนเศร้า
Ebm G#
จึงวอนขอดาวให้ช่วยบอก...(ที)

INSTRU : C#/Fm/Bbm/Ebm/G#

C# Fm
หากตัวเขา มีใจให้ฉันจริง
Ebm G#
ฉันขอได้ไหม ให้ทุกสิ่งเป็นจริงเรื่อยไป
C# Fm
ต่อจากวันนี้ เขามีแต่ฉันในหัวใจ
Ebm G#
จึงอธิษฐานและขอดวงดาวให้ ช่วยฉันสักที

(ซ้ำ * , ** )

F#maj7/Fm
ช่วยบอกกับฉันให้รู้ ให้มั่นใจ
Ebm Bb7
การรอคอย มันยากเกินทนไหว
Fmaj7 Fm
ได้โปรดช่วยบอกฉัน และตอบหน่อยได้ไหม
Ebm G#
พรุ่งนี้เขากับฉัน นั้นจะเป็นอย่างไร

(ซ้ำ ** )

INSTRU : C#/Fm/Bbm/Ebm/G#(2 times)
C#

ส่งเพลงนี้ให้เพื่อน
วันที่โพสต์ : 6 ก.พ.2549,10:28น. 192.168.2.218
จำนวนผู้ชม : 389421 คน / แสดงความคิดเห็น : 79 ครั้ง
โพสต์โดย


จาก: เติ้ล
เข้าร่วม: 8 ปีก่อน
เพลง: 0
โพสต์: 5
เพลงแนะนำ
เพลงฮิต
เลือกแสดงเฉพาะ :

  • poi
    Guest
  • 2 มิ.ย.2549,13:32น.
    ผมเล่น คีย์ C แต่ intro แบบ คีย์Aจะเหมือนกว่าอะ
    
    คีย์ C
    intro
    1---------3--------3----------3--------------------3------------------8---------------3-----------3------
    2----------------3--------3----------3----------3-----5----6----6-------------6-------------3----------
    3-------------5--------5----------5----------5-----------------5------------5--------------4-----------
    4-------------------------------------------------------------------------------------------------
    5---------3--------------------3----------0------------------5-----------------------------------------
    6------------------------------------------------------------------------------------------3----------3


    คีย์A
    1------0----------0--------0----------------------0----------------5---------------0--------0-----
    2--------------0--------0----------0----------2-------3--------3----------3-------------0-----
    3-----------2--------2----------2----------2----------------2-----------2-------------1------
    4--------------------------------------------------------------------------------------------------
    5-------0-------------------0---------------------------2--------------------------------------
    6----------------------------------------2--------------------------------------------0-------------
  • poi
    Guest
  • 2 มิ.ย.2549,13:32น.
    ผมเล่น คีย์ C แต่ intro แบบ คีย์Aจะเหมือนกว่าอะ
    คีย์ C
    intro
    1---------3--------3----------3--------------------3------------------8---------------3-----------3------
    2----------------3--------3----------3----------3-----5----6----6-------------6-------------3----------
    3-------------5--------5----------5----------5-----------------5------------5--------------4-----------
    4-------------------------------------------------------------------------------------------------
    5---------3--------------------3----------0------------------5-----------------------------------------
    6------------------------------------------------------------------------------------------3----------3


    คีย์A
    1------0----------0--------0----------------------0----------------5---------------0--------0-----
    2--------------0--------0----------0----------2-------3--------3----------3-------------0-----
    3-----------2--------2----------2----------2----------------2-----------2-------------1------
    4--------------------------------------------------------------------------------------------------
    5-------0-------------------0---------------------------2--------------------------------------
    6----------------------------------------2--------------------------------------------0-------------
  • จิมมี่
    Guest
  • 5 พ.ค.2550,10:31น.
    กุแกะได้แล้ว  ลอง ด้อบสายดู เหมือนเด้ะ เลย คี C มืงอะ เป็น B
  • เด็กใต้คนนึง
    Guest
  • 20 ก.ค.2550,21:13น.
    INTRO : A/C#m/F#m/Bm/E(2 times)

    A C#m
    หากคืนนี้ มีดาวอยู่ล้านดวง
    Bm E
    ฉันขอได้ไหมสักดวงหนึ่ง ช่วยฟังฉันที
    A C#m
    เพราะว่าคืนนี้ ฉันมีเรื่องร้อนใจ
    Bm E
    อยากอธิษฐานและชอดวงดาวให้ ช่วยฉันสักที

    C#m F#m
    * เนื่องจากตอนนี้ ฉันรู้สึกจิตใจมันอ่อนไหว
    Bm E
    อยากจะรู้ว่าเขาเป็นยังไง จากคำพูดวันนี้

    C#m/F#m Bm/E
    ** เพราะฉันเพิ่งบอกรักไป และเขาก็รับฟัง
    C#m F#m Bm
    ทุกอย่างทุกถ้อยคำ เหมือนความฝัน
    E C#m/F#m
    แต่ฉันเองก็ไม่อาจแน่ใจ
    Bm E C#m F#m
    พรุ่งนี้เรื่องของเรา จะสุขหรือแสนเศร้า
    Bm E
    จึงวอนขอดาวให้ช่วยบอก...(ที)

    INSTRU : A/C#m/F#m/Bm/E

    A C#m
    หากตัวเขา มีใจให้ฉันจริง
    Bm E
    ฉันขอได้ไหม ให้ทุกสิ่งเป็นจริงเรื่อยไป
    A C#m
    ต่อจากวันนี้ เขามีแต่ฉันในหัวใจ
    Bm E
    จึงอธิษฐานและขอดวงดาวให้ ช่วยฉันสักที

    (ซ้ำ * , ** )

    Cmaj7/C#m
    ช่วยบอกกับฉันให้รู้ ให้มั่นใจ
    Bm F#m7
    การรอคอย มันยากเกินทนไหว
    C#maj7 C#m
    ได้โปรดช่วยบอกฉัน และตอบหน่อยได้ไหม
    Bm E
    พรุ่งนี้เขากับฉัน นั้นจะเป็นอย่างไร

    (ซ้ำ ** )

    คีย์ A น่ะ เราว่าเหมือน

    INSTRU : A/C#m/F#m/Bm/E(2 times)
    A
  • SFIDA
    Guest
  • 2 ม.ค.2551,21:25น.
    ดาว 
    ศิลปิน : พอส (Pause)
    INTRO : C#/Fm/Bbm/F#/G#(2 times)

    C# Fm
    หากคืนนี้ มีดาวอยู่ล้านดวง
    F# G#
    ฉันขอได้ไหมสักดวงหนึ่ง ช่วยฟังฉันที
    C# Fm
    เพราะว่าคืนนี้ ฉันมีเรื่องร้อนใจ
    F# G#
    อยากอธิษฐานและชอดวงดาวให้ ช่วยฉันสักที

    Fm Bbm
    * เนื่องจากตอนนี้ ฉันรู้สึกจิตใจมันอ่อนไหว
    F# G#
    อยากจะรู้ว่าเขาเป็นยังไง จากคำพูดวันนี้

    Fm/Bbm F# /G#
    ** เพราะฉันเพิ่งบอกรักไป และเขาก็รับฟัง
    Fm Bbm F#
    ทุกอย่างทุกถ้อยคำ เหมือนความฝัน
    G# Fm/Bbm
    แต่ฉันเองก็ไม่อาจแน่ใจ
    F# G# Fm Bbm
    พรุ่งนี้เรื่องของเรา จะสุขหรือแสนเศร้า
    F# G#
    จึงวอนขอดาวให้ช่วยบอก...(ที)

    INSTRU : C#/Fm/Bbm/F# /G#

    C# Fm
    หากตัวเขา มีใจให้ฉันจริง
    F# G#
    ฉันขอได้ไหม ให้ทุกสิ่งเป็นจริงเรื่อยไป
    C# Fm
    ต่อจากวันนี้ เขามีแต่ฉันในหัวใจ
    F# G#
    จึงอธิษฐานและขอดวงดาวให้ ช่วยฉันสักที

    (ซ้ำ * , ** )

    F#maj7/Fm
    ช่วยบอกกับฉันให้รู้ ให้มั่นใจ
    F# Bb7
    การรอคอย มันยากเกินทนไหว
    Fmaj7 Fm
    ได้โปรดช่วยบอกฉัน และตอบหน่อยได้ไหม
    F# G#
    พรุ่งนี้เขากับฉัน นั้นจะเป็นอย่างไร

    (ซ้ำ ** )

    INSTRU : C#/Fm/Bbm/F# /G#(2 times)
    C#

    ToL Version

    ลองเล่นๆ
1

ขอเชิญร่วมแสดงความคิดเห็นครับ

คลิกที่รูป เพื่อแทรกรูปลงในข้อความ
  • Member :
    username
    password
  • Not a member :
    name
    email