Loading

คอร์ดเพลง ทางผ่าน

บิ๊กแอส (Big Ass)

อัพโหลดคลิปเพลงนี้ที่คุณ ร้อง/เล่น ด้วยตัวคุณเอง ได้แล้ววันนี้
ระหว่างการทดสอบระบบหากพบข้อผิดพลาด กรุณาแจ้งที่นี่
Intro :   C / F / 


C
เจ็บที่ต้องพูดมันออกไป
F
ว่าความรักเรามันจบแล้ว
C
ไม่อยากให้เธอ ต้องผิดหวัง
F G
เราควรแยกทางนับจากนี้

Am Em
* สิ่งที่เธอรอคอย สิ่งที่เธอนั้นต้องการ
Am Em
ต่างจากฉัน มันทำให้รักไม่เข้าใจ
F G
โบกมือลา จากฉันไป

C Em F G
** อยากให้เธอได้เจอ หนทางเดินใหม่
C Em F G
อาจเจอใคร ดั่งใจเธอต้องการ
C Em Am
ส่วนตัวฉัน จะขอเป็นทางผ่าน
G F Fm C F
ขอเป็นทางผ่าน ให้เธอก้าวเดินผ่านไป

C
เจ็บที่สองเรายังผูกพัน
F
แต่หมดหนทางที่จะรัก
C
อาจทำให้ใจต้องเจ็บช้ำ
F G
แต่คงไม่นานเธอจะลืม


( ซ้ำ * , ** )

Instru : / Am / Em D / D / ( 2times ) / Bb / G /

( ซ้ำ ** 2 ครั้ง )

Ending : / C /


-------------------------------------------------------------------------------------------------
ส่งเพลงนี้ให้เพื่อน
วันที่โพสต์ : 13 ธ.ค.2546,11:08น.
จำนวนผู้ชม : 293641 คน / แสดงความคิดเห็น : 97 ครั้ง
โพสต์โดย


จาก: [B]{a}[N]{g}[K]
Guest
เพลงแนะนำ
เพลงฮิต
เลือกแสดงเฉพาะ :

  • ไก่
    Guest
  • 30 ส.ค.2547,23:41น.
    The Guitar Mag  เล่มที่365  หน้าปกแคลช
    
    มีเพลงนี้ครับ
    ((อัพเดทคอร์ดกีต้าร์))
  • ไก่
    Guest
  • 30 ส.ค.2547,23:41น.
    The Guitar Mag  เล่มที่365  หน้าปกแคลช
    มีเพลงนี้ครับ
    ((อัพเดทคอร์ดกีต้าร์))
  • มือใหม่หัดเขียนแทป
    Guest
  • 2 พ.ค.2548,23:28น.
    -------------------------------------------3-------------1---0-1---1---------------------------------
    ---------1--0h1-3-1--------1---0h1----3--------------------------------------------------------
    -------0--0----------------0----0-------------------2---2------2-----------------------------------------
    ----------------------------------------------------3-----------------------------------------------
    ----3--------------------3------------------------------------------------------------------------------
    --------------------------------------------------------------------------------------------------
    intro นะ เราแกะเอง
  • โดม CoNFusE
    Guest
  • 22 ต.ค.2548,19:57น.
    นี้ฟังดูดีๆจิงน้าจะเป็นอย่างนี้น้า
    InTro
    1)---------------------------------------------------3----------------1-----0h1----1--------------
    2)----------1----0h1--3--1-----------1----0h1----1----------1----1--------1----------------
    3)-------0----0---------------------0-----0------------------------------------------------------------
    4)--------------------------------------------------------------3-------------------------3---------
    5)----3--------------------------3---------------------------------------------------------------------

    อันนี้ intro อย่างเดียวน่ะถ้าขึ้นเพลงแล้วมันจะมีต่ออีก เยอะเลย ขี้เกียดเกะแว้ววว
    ตอนขึ้นเพลงก็ตีคอดไปละกัน หุๆ


  • Da_PupPetS
    Guest
  • 26 ธ.ค.2549,00:21น.
    1 l------------------------------l---------------------3-------l----------------------------l------
    2 l-----------------------3------l------------------------3---l---------6----5-6-----6--l------
    3 l----------5----4--5-----5---l---------5---4--5---------l------5----5---------5----l------
    4 l--------5---5----------------l-------5---5---------------l---3------------------------l--3--
    5 l-----3-----------------------l-----3----------------------l-----------------------------l------

    ผมว่าน่าจะประมาณนี้นะครับ เพื่อนเพิ่งส่งเพลงมาให้ง่ะ
  • ตั้ม
    Guest
  • 22 ม.ค.2550,14:04น.

    1-I------------------------------------------------3--------------------------------------
    2-I--------1----0h1--3--1--------1-----0h1-----3----------6---- 5h6-----6------
    3-I-----0----0-------------------0-----0--------------------5-----5--------5----------
    4-I--------------------------------------------------------3--------------------------3---
    5-I--3-------------------------3----------------------------------------------------------

    1 ll----l----l-x- l----l----l----l----l----l----l เล่นฟอร์มนี้สามารถที่จะ เล่นสาย 1 ได้ด้วย
    2 ll----l----l----l----l----l-x -l----l----l----l ตามรูป
    3 ll----l----l----l----l- x-l----l----l----l----l (สาย 1 เล่นพร้อมกับเนื้อร้อง)
    4 ll----l----l-x- l----l----l----l----l----l----l
    5 ll----l----l----l----l----l----l----l----l----l
    6 ll----l----l----l----l----l----l----l----l----l
  • เด็กฉะ
    Guest
  • 26 พ.ย.2550,21:39น.


    1--------------------------------------------------------------3--------------------1-----0--1-----1-------
    2----------1-----0oh1--3--1--------------1-----0oh1------1-------------------0---------0-----------
    3------0-----0---------------------------0-----0------------------------------0----------------------------
    4--------------------------------------------------------------------------------------------------------------
    5---3--------------------------------3--------------------------------------3--------------------------------
    6--------------------------------------------------------------------------------------------------------------
    ผมเล่นงี้อะ คล้ายนะ
1

ขอเชิญร่วมแสดงความคิดเห็นครับ

คลิกที่รูป เพื่อแทรกรูปลงในข้อความ
  • Member :
    username
    password
  • Not a member :
    name
    email