Loading

คอร์ดเพลง ทิ้งไว้ในใจ

บิ๊กแอส (Big Ass)

อัพโหลดคลิปเพลงนี้ที่คุณ ร้อง/เล่น ด้วยตัวคุณเอง ได้แล้ววันนี้
ระหว่างการทดสอบระบบหากพบข้อผิดพลาด กรุณาแจ้งที่นี่


G C
เธอจะทิ้งฉันไปใช่ไหม อย่างนั้นก็ห้ามไม่ได้
G D C
อย่างฉันไม่มีความหมาย ห้ามไปก็เท่านั้น

G C
อยากจะขอร้องเธอสักครั้ง ว่ารักที่ฉันเคยให้
G D C G
จะเอาไว้ที่เธอได้ไหม แม้เธอจะไม่ต้องการ


// C G D
// ไม่ต้องเอาไปทิ้งให้มันไกลสายตา ไม่ต้องเอาไปไหน
//// C G C Em
//// ให้เธอทิ้งไว้ อยู่ในใจเธอแล้วกัน รักที่ได้จากฉัน ทิ้งมันไว้ที่เก่า
//// G C G
//// เอาไว้ที่เดิม เผื่อ(วันนึง/สักวัน) หากเธอต้องไม่เหลือใคร
//// F#m7 Bbm Bm F#m7 Em/Emaj7
//// เธอยังเหลือฉันอยู่ ให้รู้ว่าเธอนั้น-----มี--ฉันอยู่ในใจ
////

G C
ไม่อยากเห็นเธอไปกับเขา อยากรั้งเอาไว้ไห้ได้
G D C
แต่ก็รู้ว่าคงจะสาย--เกินไปสำหรับฉัน
G C
เก็บความรักฉันไว้ให้ดี เผื่อวันไหนที่เธอร้องไห้
G D C G
ถ้าเธอค้นหัวใจ จะรู้--ว่าเธอยังคงมีฉัน

// , //// , ////

รักที่ได้จากฉัน ใจที่ฉันเคยให้
เอาไว้ที่เธอได้ไหม ทิ้งไว้ในหัวใจ
แม้ว่าเธอไม่รัก แม้ฉันห้ามไม่ได้
แต่จะขอรักเธอต่อไป งังไงก็รักเธอ
ส่งเพลงนี้ให้เพื่อน
วันที่โพสต์ : 15 ก.พ.2546,11:23น.
จำนวนผู้ชม : 412965 คน / แสดงความคิดเห็น : 124 ครั้ง
โพสต์โดย


จาก: เว็บมาสซาเตอร์
เข้าร่วม: 9 ปีก่อน
เพลง: 0
โพสต์: 219
เพลงแนะนำ
เพลงฮิต
เลือกแสดงเฉพาะ :

  • คนเล่นเปียโน
    Guest
  • 31 พ.ค.2547,19:42น.
    แล้วคอร์ดท่อนสุดท้ายของเปียโนไปไหนอะ  Ho ลำเอียงอะให้แต่กีตาร์อะ แล้วเปียโนอะ 
    ((อัพเดทคอร์ดกีต้าร์))
  • คนเล่นเปียโน
    Guest
  • 31 พ.ค.2547,19:42น.
    แล้วคอร์ดท่อนสุดท้ายของเปียโนไปไหนอะ  Ho ลำเอียงอะให้แต่กีตาร์อะ แล้วเปียโนอะ 
    ((อัพเดทคอร์ดกีต้าร์))
  • ตั้ม
    Guest
  • 21 ส.ค.2547,20:43น.
    ทิ้งไว้ในใจ // Big Ass

    Intro: E Asus2 E Asus2
    Asus2 E
    เธอจะทิ้งฉันไปใช่ไหม อย่างนั้นก็ห้ามไม่ได้
    Asus2 B E
    ในเมื่อฉันไม่มีความหมาย ห้ามไปก็เท่านั้น
    Asus2 E
    แต่จะขอร้องเธอสักครั้ง ว่ารักที่ฉันเคยให้
    Asus2 B C#m
    จะเอาไว้ที่เธอได้ไหม แม้เธอจะไม่ต้องการ
    B A B
    * ไม่ต้องเอาไปทิ้ง ให้มันไกลสายตา ไม่ต้องเอาไปไหน
    E Asus2 E Asus2
    ให้เธอทิ้งไว้ อยู่ในใจเธอแล้วกัน รักที่ได้จากฉัน ทิ้งมันไว้ที่เก่า
    B E Asus2
    เอาไว้ที่เดิม เผื่อวันหนึ่ง หากเธอต้องไม่เหลือใคร
    G#m F#m B
    เธอยังเหลือฉันอยู่ ให้รู้ว่าเธอนั้น มีฉันอยู่ในใจ
    Instru: E Asus2
    Asus2 E
    ไม่อยากเห็นเธอไปกับเขา อยากรั้งเอาไว้ให้ได้
    Asus2 B E
    แต่ก็รู้ว่าคงจะสายเกินไปสำหรับฉัน
    Asus2 E
    เก็บความรักฉันไว้ให้ดี เมื่อวันไหนที่เธอร้องให้
    Asus2 B C#m
    หากเธอค้นหัวใจ จะรู้ว่าเธอยังคงมีฉัน
    (ซ้ำ *)
    Instru: C#m B A B
    E Asus2 E Asus2
    ให้เธอทิ้งไว้ อยู่ในใจเธอแล้วกัน รักที่ได้จากฉัน ทิ้งมันไว้ที่เก่า
    C#m E Asus2
    เอาไว้ที่เดิม เผื่อสักวัน หากเธอต้องไม่เหลือใคร
    G#m F#m B
    เธอยังเหลือฉันอยู่ ให้รู้ว่าเธอนั้น มีฉันอยู่ในใจ
    E Asus2 E Asus2 B E
    รักที่ได้จากฉัน ใจที่ฉันเคยให้ เอาไว้ที่เธอได้ไหม (ทิ้งไว้ในหัวใจ)
    Asus2 E Asus2 B E
    แม้ว่าเธอไม่รัก แม้ฉันห้ามไม่ได้ แต่จะขอรักเธอต่อไป (จะยังไงก็รักเธอ)


    ((อัพเดทคอร์ดกีต้าร์))
  • ตั้ม
    Guest
  • 23 ส.ค.2547,22:53น.
    4-------------------2----I-------------------------------------
    5--------2----4---------I------------------2------------------
    6-------------------------I------2----4------------------------
    Intro
    ((อัพเดทคอร์ดกีต้าร์))
  • ีUmbrela Of Suankularb
    Guest
  • 30 เม.ย.2548,20:49น.
    Intro

    3)------------0--------------------------------------------
    4)--0ูุ^2------------------0-------------------------------
    5)-----------------0^2------------------------------------
    6)----------------------------------------------------------


    ของแท้แน่นอน

  • Umbrela Of Suankularb
    Guest
  • 30 เม.ย.2548,20:57น.
     Intro
    3)------------0--------------------------------------------
    4)--0ูุ^2------------------0-------------------------------
    5)-----------------0^2------------------------------------
    6)----------------------------------------------------------

    G/Csus2/G/Csus2


    G Csus2 G
    เธอจะทิ้งฉันไปใช่ไหม อย่างนั้นก็ห้ามไม่ได้
    Csus2 D G
    ในเมื่อฉันไม่มีความหมาย ห้ามไปก็เท่านั้น
    Csus2 G
    แต่จะขอร้องเธอสักครั้ง ว่ารักที่ฉันเคยให้
    Csus2 D Em
    จะเอาไว้ที่เธอได้ไหม แม้เธอจะไม่ต้องการ
    D Csus2 D
    * ไม่ต้องเอาไปทิ้ง ให้มันไกลสายตา ไม่ต้องเอาไปไหน
    G Csus2 G Csus2
    ให้เธอทิ้งไว้ อยู่ในใจเธอแล้วกัน รักที่ได้จากฉัน ทิ้งมันไว้ที่เก่า
    D G Csus2
    เอาไว้ที่เดิม เผื่อวันหนึ่ง หากเธอต้องไม่เหลือใคร
    Bm7 Am7 D
    เธอยังเหลือฉันอยู่ ให้รู้ว่าเธอนั้น มีฉันอยู่ในใจ
    Instru: G Csus2
    G Csus2 G
    ไม่อยากเห็นเธอไปกับเขา อยากรั้งเอาไว้ให้ได้
    Csus2 D G
    แต่ก็รู้ว่าคงจะสายเกินไปสำหรับฉัน
    Csus2 G
    เก็บความรักฉันไว้ให้ดี เมื่อวันไหนที่เธอร้องให้
    Csus2 D Em
    หากเธอค้นหัวใจ จะรู้ว่าเธอยังคงมีฉัน
    (ซ้ำ *)
    Instru: Em/ D/ C/ D
    G Csus2 G Csus2
    ให้เธอทิ้งไว้ อยู่ในใจเธอแล้วกัน รักที่ได้จากฉัน ทิ้งมันไว้ที่เก่า
    D G Csus2
    เอาไว้ที่เดิม เผื่อสักวัน หากเธอต้องไม่เหลือใคร
    Bm7 Am7 D
    เธอยังเหลือฉันอยู่ ให้รู้ว่าเธอนั้น มีฉันอยู่ในใจ
    G Csus2 G Csus2 D G
    รักที่ได้จากฉัน ใจที่ฉันเคยให้ เอาไว้ที่เธอได้ไหม (ทิ้งไว้ในหัวใจ)
    Csus2 G Csus2 D G
    แม้ว่าเธอไม่รัก แม้ฉันห้ามไม่ได้ แต่จะขอรักเธอต่อไป (จะยังไงก็รักเธอ)
  • แจ๊ก สามเสน
    Guest
  • 15 พ.ย.2548,16:30น.
    อินโทร

    แบบไม่ทดสายนะ
    6--------------------5--7-----------
    5------5--7-----------------5------
    4--------------5---------------------

    แล้วเล่นคอร์ดไปเรื่อยๆ แล้วก็เล่นแบบข้างบนอีกรอบ(อาจจะเพิ่มกีต้าร์อีกตัวแบบข้างล่างก็ได้)

    ( 1------------3-------------------)
    ( 2----3--5----------------3------)
    ( 3-----------------2--4----------)

    ท่อนโซโล่ไม่แน่ใจนะ

    เล่นคอร์อ Em7 หนึ่งห้อง แล้วต่อด้วย D อีกหนึ่งห้อง
    6-------------------------------------------------------------------------------------------------------
    5-------------4-----------4----------4---------4-----4----4------------4--------4---------4-----4
    4-------5-4-----5----4------5-4-------5--4-----4----4-----4--5-4-----5--4------5-4-----4
    3--------------------------------------------------------------------------------------------------------

    แล้วเล่น Csus2 อีกหนึ่งห้อง
    5----------------------------------------------------------------------
    4------4------4---------------------4----------------4----------
    3----------5---------------------5------4--------5----------------
    2--------------------3--------------------------------------3--------

    ส่วน D ห้องสุดท้ายยังแกะไม่ได้นะครับ

    แค่ฟังยังงงเลยครับ
  • กะจั๊วะทีม
    Guest
  • 17 พ.ค.2549,00:01น.
    เล่นขำๆๆๆๆๆ
    4)-------0----------------
    5)-0^2-----------0------
    6)----------2-3---------
  • ยุท S.p.y.
    Guest
  • 7 ม.ค.2550,17:59น.
    ทิ้งไว้ในใจ : Intro 
    ชัวร์ๆๆๆๆๆ
    ----------------------------------3------------3--------3-------3-----------------------------------------
    ----------------------------------3------------3--------3-----------3-----------------------------------
    -------------0-------------------0------------0--------0----------------0---------------0--------------
    ---0h2--------------------0----0------------2--------0-----------------------0h2-----------------0
    ------------------0h2-----------2------------3--------2-------------------------------------0h2--------
    ----------------------------------3----------------------3-------3-------------------------------------------
    >>>>>>>>>>>>>>>>>>>(G )>>>>>> (C) >(G) >>>>>>>>>>>>>>>>>>>>>>>>>>(G)
    G Csus2 G
    เธอจะทิ้งฉันไปใช่ไหม อย่างนั้นก็ห้ามไม่ได้
    Csus2 D G
    ในเมื่อฉันไม่มีความหมาย ห้ามไปก็เท่านั้น
    Csus2 G
    แต่จะขอร้องเธอสักครั้ง ว่ารักที่ฉันเคยให้
    Csus2 D Em
    จะเอาไว้ที่เธอได้ไหม แม้เธอจะไม่ต้องการ
    D Csus2 D
    * ไม่ต้องเอาไปทิ้ง ให้มันไกลสายตา ไม่ต้องเอาไปไหน
    G Csus2 G Csus2
    ให้เธอทิ้งไว้ อยู่ในใจเธอแล้วกัน รักที่ได้จากฉัน ทิ้งมันไว้ที่เก่า
    D G Csus2
    เอาไว้ที่เดิม เผื่อวันหนึ่ง หากเธอต้องไม่เหลือใคร
    Bm7 Am7 D
    เธอยังเหลือฉันอยู่ ให้รู้ว่าเธอนั้น มีฉันอยู่ในใจ
    Instru: G Csus2
    G Csus2 G
    ไม่อยากเห็นเธอไปกับเขา อยากรั้งเอาไว้ให้ได้
    Csus2 D G
    แต่ก็รู้ว่าคงจะสายเกินไปสำหรับฉัน
    Csus2 G
    เก็บความรักฉันไว้ให้ดี เมื่อวันไหนที่เธอร้องให้
    Csus2 D Em
    หากเธอค้นหัวใจ จะรู้ว่าเธอยังคงมีฉัน
    (ซ้ำ *)
    Instru: Em D C D
    G Csus2 G Csus2
    ให้เธอทิ้งไว้ อยู่ในใจเธอแล้วกัน รักที่ได้จากฉัน ทิ้งมันไว้ที่เก่า
    D G Csus2
    เอาไว้ที่เดิม เผื่อสักวัน หากเธอต้องไม่เหลือใคร
    Bm7 Am7 D
    เธอยังเหลือฉันอยู่ ให้รู้ว่าเธอนั้น มีฉันอยู่ในใจ
    G Csus2 G Csus2 D G
    รักที่ได้จากฉัน ใจที่ฉันเคยให้ เอาไว้ที่เธอได้ไหม (ทิ้งไว้ในหัวใจ)
    Csus2 G Csus2 D G
    แม้ว่าเธอไม่รัก แม้ฉันห้ามไม่ได้ แต่จะขอรักเธอต่อไป (จะยังไงก็รักเธอ)

  • 28 ก.พ.2550,11:06น.

    คอร์ดอ่ะ เปนดรอปลงมาครึ่งเสียงเปน Eb แล้ว เล่นในคีย์ G เพลงนี้ผมแกะทะลุปรุโปร่งหมดละคับ

    ลองดู โซโล่ กดคอร์ดแบบนี้นะ
    G Csus2
    1------3 1------------3
    2-----3 2-------------3
    3-----0 3----------0
    4-----0 4---------2
    5----2 5-----------3
    6 ----3 6------------------

    Intro --------------------------------G------------------------ Csus2-----------------------------G
    1--------------------------------------------------------------------------------------------------------
    2--------------------------------------------------------------------3--------------------------3h5-3
    3----------------0---------------------------------------------------------------------------------------
    4-------0h2----------------2---------------5--4-------4h5-----------5--4---------5-------------
    5----------------------0h2--------------------------5----------------------------5-------------------
    6--------------------------------------------------------------------------------------------------------

    --------G---------------------Csus2---------------------------------------------G
    1 --------------------------------------------------------------------------------------------------------
    2--------------------------------------------------------------------------------------------------------
    3----------------------------------7--5--4---0-------------------0----------------------------------
    4-------------5-4---------------------------------------0h2----------------------0------------------
    5--------------------5---------------------------------------------------0h2---------------------
    6--------------------------------------------------------------------------------------------------------

    Csus2
    เทอจะทิ้งชั้นไปใช่ไหม .................

    ลองไปเล่นดูครับ เดวจะลงท่อนต่อๆไปให้นะ มันยาว

    แก้ไขนิดนึงคับ ทำคอร์ด ตอนintro ให้ตรงละนะคับ
  • 28 ก.พ.2550,11:21น.

    ok มาต่อเลย หลังจะอินโทรแล้ว ก้ดีดคอร์ด

    ลืมบอกไปว่า เพลงนี้ใช้กีตาร์ 2 ตัว ตัวนึงเกาคอร์ดอีกตัวเกา เสียงเบาๆคู่กันไป นะคับ แล้ว ทั้ง 2 ตัวต้อง ดรอปสายลงครึ่งเสียงเปน Eb เอาละ มาเริ่มเลย ทีละครึ่งเพลงนะคับ มันยาว เดวผมจะรวมให้

    Intro --------------------------------G------------------------ Csus2-----------------------------G
    1--------------------------------------------------------------------------------------------------------
    2--------------------------------------------------------------------3--------------------------3h5-3
    3----------------0---------------------------------------------------------------------------------------
    4-------0h2----------------2---------------5--4-------4h5-----------5--4---------5-------------
    5----------------------0h2--------------------------5----------------------------5-------------------
    6--------------------------------------------------------------------------------------------------------

    --------G---------------------Csus2---------------------------------------------G
    1 --------------------------------------------------------------------------------------------------------
    2--------------------------------------------------------------------------------------------------------
    3----------------------------------7--5--4---0-------------------0----------------------------------
    4-------------5-4---------------------------------------0h2----------------------0------------------
    5--------------------5---------------------------------------------------0h2---------------------
    6--------------------------------------------------------------------------------------------------------

    Csus2 G Csus2 D G
    เทอจะทิ้งชั้นไป ใช่ไหม อย่างนั้นก้ห้ามไม่ได้ ในเมื่อชั้นไม่มีความหมาย ห้ามไป ก้เท่านั้น
    Csus2 G Csus2 D Em
    อยากจะขอร้องเทอซักครั้ง ความรักที่ชั้นเคยให้ เกบเอาไว้ที่เทอได้ไหม แม้เทอจะไม่ต้องการ
    1----7
    2----8
    Guitar 2 3----9
    4----9
    5---7
    6--------

    D Csus2 D
    ไม่ต้องเอาไปทิ้ง ให้มัน ไกล สายตา ไม่ต้องเอาไปไหน ให้เทอ...
    1----5 |1---3 1------------------------
    2----7 |2---5 2-----------------------
    Guitar2 3----7 |3---5 3------------------------
    4-----7 |4---5 4------4-5-4-5-4-5-4
    5-----5 |5---3 5-------------------------
    6------- |6---- 6----------------------


    ตรง Guitar 2 นี่ กดตามที่เขียนไว้ ตามเฟช ให้ถูกต้อง แล้วดีด ลง ทีหลังคอร์ดจาก Guitar 1 1จังหวะ ลองฟังเพลงดูแล้วจะรู้ครับ

  • 28 ก.พ.2550,11:32น.

    ตามด้วยท่อนฮุคนะคับ

    G Csus2 G Csus2 D
    ให้เทอทิ้งไว้ อยู่ในใจ อยู่ในใจเทอ แล้วกัน รักที่ได้จาก ชั้น ทิ้งมันไว้ที่เก่า เอาไว้ที่เดิม
    G Csus2 Bm7 Am7 D G
    เผื่อวันนึง หากเทอต้องไม่เหลือใคร เทอยังเหลือชั้นอยู่ ให้รู้ว่าเทอนั้น มีชั้นอยู่ในใจ

    Instru ท่อน2
    G Csus2
    1-----------------------------------------------
    2-----------------------------------------3----
    3----------------------------------------------
    4---------------5-4--------------4h5---------
    5----------------------5-----------------------
    6-----------------------------------------------

    Guitar 1 Guitar2
    1------------------------3------------------- 1-----------------------------
    2----------------3h5------------------3--- 2---------------------------
    3------------------------------4h5-------- 3--------------0------------------
    4-------------------------------------------- 4-------0h2--------------0
    5------------------------------------------- 5-------------------0h2----
    6 ------------------------------------------ 6------------------------------

    จังหวะสุดท้ายเปนจั้งหวะ ที่กีตาร์ทั้ง 2 ตัวจะดีดพร้อมกัน เปนเสียง ลองฟังดูในเพลงแล้วเล่นตามดูคับ
  • o_O
    Guest
  • 9 พ.ค.2550,14:52น.

    - -สุดยอดดดดดดด

    Am

  • 3/4 ล.ก
    Guest
  • 15 ส.ค.2550,20:23น.

    ทิ้งไว้ในใจ / Big Ass

    Intro: G/Csus2/ (2Times)
    G Csus2 G
    เธอจะทิ้งฉันไปใช่ไหม อย่างนั้นก็ห้ามไม่ได้
    Csus2 D G
    ในเมื่อฉันไม่มีความหมาย ห้ามไปก็เท่านั้น
    Csus2 G
    แต่จะขอร้องเธอสักครั้ง ว่ารักที่ฉันเคยให้
    Csus2 Em7
    จะเอาไว้ที่เธอได้ไหม แม้เธอจะไม่ต้องการ

    ด้านบน ดีด3สายล่าง
    พอถึง ไม่ต้องเอาไปทิ้ง ให้มันไกลสายตา
    ดีด6สาย เลยคับ

    D C D
    * ไม่ต้องเอาไปทิ้ง ให้มันไกลสายตา ไม่ต้องเอาไปไหน
    G Csus2 G Csus2
    ให้เธอทิ้งไว้ อยู่ในใจเธอแล้วกัน รักที่ได้จากฉัน ทิ้งมันไว้ที่เก่า
    D G Csus2
    เอาไว้ที่เดิม เผื่อวันหนึ่ง หากเธอต้องไม่เหลือใคร
    Bm Am D G
    เธอยังเหลือฉันอยู่ ให้รู้ว่าเธอนั้น มีฉันอยู่ในใจ

    Solo: /G/Csus2/

    G Csus2 G
    ไม่อยากเห็นเธอไปกับเขา อยากรั้งเอาไว้ให้ได้
    Csus2 D G
    แต่ก็รู้ว่าคงจะสายเกินไปสำหรับฉัน
    Csus2 G
    เก็บความรักฉันไว้ให้ดี เมื่อวันไหนที่เธอร้องให้
    Csus2 D Em
    หากเธอค้นหัวใจ จะรู้ว่าเธอยังคงมีฉัน

    (ซ้ำ *)
    Instru: Em D C D
    G Csus2 G Csus2
    ให้เธอทิ้งไว้ อยู่ในใจเธอแล้วกัน รักที่ได้จากฉัน ทิ้งมันไว้ที่เก่า
    D G C
    เอาไว้ที่เดิม เผื่อสักวัน หากเธอต้องไม่เหลือใคร
    Bm Am D
    เธอยังเหลือฉันอยู่ ให้รู้ว่าเธอนั้น มีฉันอยู่ในใจ
    Csus2 G Csus2 D G
    รักที่ได้จากฉัน ใจที่ฉันเคยให้ เอาไว้ที่เธอได้ไหม ทิ้งไว้ในหัวใจ
    Csus2 G Csus2 D G
    แม้ว่าเธอไม่รัก แม้ฉันห้ามไม่ได้ แต่จะขอรักเธอต่อไป จะยังไงก็รักเธอ

    Solo:/G/Csus2/Bm/Am/Dsus4/G/


    อ้างอิงจากหนังสือ คับ
  • หนึ่งคร้าบ
    Guest
  • 11 พ.ย.2550,19:33น.
    ทิ้งไว้ในใจ // Big Ass

    Intro: G Csus2 G Csus2
    G Csus2 G
    เธอจะทิ้งฉันไปใช่ไหม อย่างนั้นก็ห้ามไม่ได้
    Csus2 D G
    ในเมื่อฉันไม่มีความหมาย ห้ามไปก็เท่านั้น
    Csus2 G
    แต่จะขอร้องเธอสักครั้ง ว่ารักที่ฉันเคยให้
    Csus2 D Em
    จะเอาไว้ที่เธอได้ไหม แม้เธอจะไม่ต้องการ
    D Csus2 D
    * ไม่ต้องเอาไปทิ้ง ให้มันไกลสายตา ไม่ต้องเอาไปไหน
    G Csus2 G Csus2
    ให้เธอทิ้งไว้ อยู่ในใจเธอแล้วกัน รักที่ได้จากฉัน ทิ้งมันไว้ที่เก่า
    D G Csus2
    เอาไว้ที่เดิม เผื่อวันหนึ่ง หากเธอต้องไม่เหลือใคร
    Bm7 Am7 D
    เธอยังเหลือฉันอยู่ ให้รู้ว่าเธอนั้น มีฉันอยู่ในใจ
    Instru: G Csus2
    G Csus2 G
    ไม่อยากเห็นเธอไปกับเขา อยากรั้งเอาไว้ให้ได้
    Csus2 D G
    แต่ก็รู้ว่าคงจะสายเกินไปสำหรับฉัน
    Csus2 G
    เก็บความรักฉันไว้ให้ดี เมื่อวันไหนที่เธอร้องให้
    Csus2 D Em
    หากเธอค้นหัวใจ จะรู้ว่าเธอยังคงมีฉัน
    (ซ้ำ *)
    Instru: Em D C D
    G Csus2 G Csus2
    ให้เธอทิ้งไว้ อยู่ในใจเธอแล้วกัน รักที่ได้จากฉัน ทิ้งมันไว้ที่เก่า
    D G Csus2
    เอาไว้ที่เดิม เผื่อสักวัน หากเธอต้องไม่เหลือใคร
    Bm7 Am7 D
    เธอยังเหลือฉันอยู่ ให้รู้ว่าเธอนั้น มีฉันอยู่ในใจ
    G Csus2 G Csus2 D G
    รักที่ได้จากฉัน ใจที่ฉันเคยให้ เอาไว้ที่เธอได้ไหม (ทิ้งไว้ในหัวใจ)
    Csus2 G Csus2 D G
    แม้ว่าเธอไม่รัก แม้ฉันห้ามไม่ได้ แต่จะขอรักเธอต่อไป (จะยังไงก็รักเธอ)

    อันนี้แน่นอน เพาะผมลองเล่นละคร้าบ
1

ขอเชิญร่วมแสดงความคิดเห็นครับ

คลิกที่รูป เพื่อแทรกรูปลงในข้อความ
  • Member :
    username
    password
  • Not a member :
    name
    email