Loading

คอร์ดเพลง ทุกอย่าง

สคลับ

อัพโหลดคลิปเพลงนี้ที่คุณ ร้อง/เล่น ด้วยตัวคุณเอง ได้แล้ววันนี้
ระหว่างการทดสอบระบบหากพบข้อผิดพลาด กรุณาแจ้งที่นี่
Intro : Bm7 E7 Amaj7 F#7 Bm7 E7 Amaj7

Bm7 E7 Amaj7 F#
จะทำทุกทุกอย่าง จะทำทุกๆทาง
Bm7 E7
มันทำให้ฉันนั้นรู้ดีว่า
Amaj7 F#
จะเป็นเช่นไร

Bm7 E7
* แม้เธอ..จะมีใครไม่สำคัญ
Amaj7 F#
แค่เพียงเธอมอง...มาที่ฉัน
Bm7 E7 Amaj7 F#
เท่านั้น...ก็พอใจอยู่ภายใน
Bm7 E7
แม้เธอจะมีใครไม่สนใจ
Amaj7 F#
แม้ความเป็นจริงมันเป็นเช่นไร
Bm7 E7 Amaj7
ไม่รู้แค่มีเธออยู่..ในใจ

Bm7 E7 Amaj7 F#7
** จะทำทุกๆอย่าง จะทำทุกๆทาง
Bm7 E7 Amaj7 F#7
ให้เธอได้รู้สึกอบอุ่นหัวใจ ไปกับฉัน
Bm7 E7 Amaj7 F#7
แต่เราเพึ่งรู้จัก แค่มองด้วยสายตา
Bm7 E7 Amaj7 (F#7)
มันทำให้ฉันนั้นรู้ดีว่า จะเป็นเช่นไร

Instru: Bm7 E7 Amaj7 F#7 Bm7 E7 Amaj7 (2times)

(ซ้ำ *,**)

Instru: Bm7 E7 Amaj7 F#7 (3times .. 'till fade out)

http://www.doo-dd.com/music/play.php?id=2643

ฟังที่นนี่นะคับ

ส่งเพลงนี้ให้เพื่อน
วันที่โพสต์ : 8 พ.ค.2549,18:13น. 125.25.31.70
จำนวนผู้ชม : 91602 คน / แสดงความคิดเห็น : 32 ครั้ง
โพสต์โดย


จาก: มูจาฮิดีน
เข้าร่วม: 8 ปีก่อน
เพลง: 0
โพสต์: 67
เพลงแนะนำ
เพลงฮิต
เลือกแสดงเฉพาะ :

  • สัน_ช่างกลอุดรTEAM
    Guest
  • 12 ธ.ค.2549,11:40น.
    เบสนะครับ
    
    2-----------------------4----7----6----------------------------------------------
    3---------4---5---7------------------7-----5-----4-----------------------------------
    4--5--7------------------------------------------------7----5----3----2----3-------

    2---------------------------------------7------6------4-------------------------------
    3-----------------4-----5------7-------------------------7-----5-----4------------------
    4----5----7-------------------------------------------------------------------7-----5-----

    2--------------------------4-----6----7-------------------------------------------------------
    3-------4----5------7---------------------7------5------4-----------------------------------------
    4----7------------------------------------------------------------7----5-----3-----2-----3-------

    1-----------------------------------------9----
    2--------------------------9/11-----9-----9
    3------4-----5------7-------------------------
    4--5-------------------------------------------
    เอาปายเล่นกันมันๆ
  • สัน_ช่างกลอุดรTEAM
    Guest
  • 12 ธ.ค.2549,11:40น.
    เบสนะครับ
    2-----------------------4----7----6----------------------------------------------
    3---------4---5---7------------------7-----5-----4-----------------------------------
    4--5--7------------------------------------------------7----5----3----2----3-------

    2---------------------------------------7------6------4-------------------------------
    3-----------------4-----5------7-------------------------7-----5-----4------------------
    4----5----7-------------------------------------------------------------------7-----5-----

    2--------------------------4-----6----7-------------------------------------------------------
    3-------4----5------7---------------------7------5------4-----------------------------------------
    4----7------------------------------------------------------------7----5-----3-----2-----3-------

    1-----------------------------------------9----
    2--------------------------9/11-----9-----9
    3------4-----5------7-------------------------
    4--5-------------------------------------------
    เอาปายเล่นกันมันๆ
1

ขอเชิญร่วมแสดงความคิดเห็นครับ

คลิกที่รูป เพื่อแทรกรูปลงในข้อความ
  • Member :
    username
    password
  • Not a member :
    name
    email