Loading

คอร์ดเพลง บอลลูน

พาราดอกซ์ (Paradox)

อัพโหลดคลิปเพลงนี้ที่คุณ ร้อง/เล่น ด้วยตัวคุณเอง ได้แล้ววันนี้
ระหว่างการทดสอบระบบหากพบข้อผิดพลาด กรุณาแจ้งที่นี่
บอลลูน
คำร้อง/ทำนอง อิทธิพงศ์ กฤดากร ณ อยุธยา
PARADOX : ร้อง

Intro: C C C G

C
เหล่าบอลลูนมันลอยกันอยู่ในฟ้าดูงาม
F G
มองจนเพลินดูไปก็น่าลอยตาม
C
หากใจเรามันพองเป็นอย่างกับลูกบอลลูน
F G
เธอคอยเติมให้ความรักเราพองตาม

C F
* มาเถิด.. เติมรักให้เต็มลูกโป่ง
Fm C G
ทำหัวใจเราให้พองใหญ่ เต็มหัวใจอย่างบอลลูน

F
** มาเติมรักจนอิ่มจนล้นจนป่อง
C
สูบรักจนเป่งจนหัวใจพอง
Em F G
ล่องลอย ไปกับความสุขล้นปรี่

C
อยากมีเธอมาเติมมาแต่งมาสนใจกัน
F G
คอยดูแลมาทำให้โลกงามตา
C
แบ่งปันกำลังใจให้รักกระดุ๊กกระดิ๊กซ่า
F G
เป็นพลังให้เราทุกช่วงเวลา

(ซ้ำ *,**)

Instru: C C F G (2times) F G C Em Am G F G C G

(ซ้ำ *,**)

C F
ปาดาดั๊บปา จะลอยบนฟ้าสีคราม
Em F G
ปาดาดั๊บปา ปาดาดั๊บปา
C F
ปาดาดั๊บปา จะลอยบนฟ้าสวยงาม
Em F
ปาดาดั๊บปา ปาดาดั๊บปา
G C
ปา ดับ ปั๊บ ปั๊บ ปา
ส่งเพลงนี้ให้เพื่อน
วันที่โพสต์ : 25 ก.พ.2547,19:43น.
จำนวนผู้ชม : 106148 คน / แสดงความคิดเห็น : 14 ครั้ง
โพสต์โดย


จาก: Pakradox
Guest
เพลงแนะนำ
เพลงฮิต
เลือกแสดงเฉพาะ :

  • gjy
    Guest
  • 21 ก.ค.2547,23:27น.
    jdfhfhfgjhfg                      
  • NOTE _ วงShan_Nai
    Guest
  • 26 ธ.ค.2548,11:16น.
    ใครอยากได้แท็ปเดี๋ยว จัดให้     
    รัก พาราด็อก
  • เบสๆๆๆ
    Guest
  • 27 ธ.ค.2548,15:15น.
    เอาๆๆๆๆๆๆๆๆ
  • 12 มี.ค.2549,15:12น.
    บอลลูน 
    Artist : พาราดอกซ์

    บอลลูน
    คำร้อง/ทำนอง อิทธิพงศ์ กฤดากร ณ อยุธยา
    PARADOX : ร้อง

    Intro: C C C G

    C
    เหล่าบอลลูนมันลอยกันอยู่ในฟ้าดูงาม
    F G
    มองจนเพลินดูไปก็น่าลอยตาม
    C
    หากใจเรามันพองเป็นอย่างกับลูกบอลลูน
    F G
    เธอคอยเติมให้ความรักเราพองตาม

    C C7 F
    * มาเถิด.. เติมรักให้เต็มลูกโป่ง
    Fm C G
    ทำหัวใจเราให้พองใหญ่ เต็มหัวใจอย่างบอลลูน

    F
    ** มาเติมรักจนอิ่มจนล้นจนป่อง
    C
    สูบรักจนเป่งจนหัวใจพอง
    Em F G
    ล่องลอย ไปกับความสุขล้นปรี่

    C
    อยากมีเธอมาเติมมาแต่งมาสนใจกัน
    F G
    คอยดูแลมาทำให้โลกงามตา
    C
    แบ่งปันกำลังใจให้รักกระดุ๊กกระดิ๊กซ่า
    F G
    เป็นพลังให้เราทุกช่วงเวลา

    (ซ้ำ *,**)

    Instru: C C F G (2times) F G C Em Am G F G C G

    (ซ้ำ *,**)

    C F
    ปาดาดั๊บปา จะลอยบนฟ้าสีคราม
    Em F G
    ปาดาดั๊บปา ปาดาดั๊บปา
    C F
    ปาดาดั๊บปา จะลอยบนฟ้าสวยงาม
    Em F
    ปาดาดั๊บปา ปาดาดั๊บปา
    G C
    ปา ดับ ปั๊บ ปั๊บ ปา

  • paradox_ap
    Guest
  • 22 มี.ค.2549,08:58น.
    ชอบพาราด็อกซ์มากกกก

    ขอบคุนคนที่เอามาโพสค่ะ

  • ...
    Guest
  • 28 พ.ค.2549,17:56น.
              เจ๋งเด
  • โดนัท วง สโมกแบน ขอนแก่น
    Guest
  • 16 ต.ค.2549,10:03น.
    Tab Solo บอลลูน

    2-----------3--5--5--3--3-----------------------------------------------------------------------------------------------------------------------
    3----5--5--------------------5--5--4--4----------2--2--4--4--5--5----------------2--2--5--5--4--4--2------------------------------------
    4--------------------------------------------5--5------------------------3--3--5--5---------------------------5--------------------------------

    2-----------3--5--5--3--3--------------------------------------------------------------------------------------------------6/8------------------
    3----5--5--------------------5--5--4--4----------2--2--4--4--5--5----------------2--2--5--5--4--4--5--5/7-----7------------------------
    4--------------------------------------------5--5------------------------3--3--5--5-------------------------------------------------------------

    1----10-----10------8------8--7--7---------------------------------------------------------------------------------------------------------------
    2---------8-------8------8-------------10--8----------------8------------------------8--8--------------------------------------------------------------
    3-------------------------------------------------7^9ค้างไว้-----7-----5-----7^9-----------7--5--7--5-----------------------------------------------

    2---------------------------------------------------8---8----------------------------------------------------------------------------------------------------------
    3-----------5------------5---5---7---5---7^9------------7---5-----------5---5-------------------------------------------------------------------------------
    4---5h7---------5h7------------------------------------------------5h7------------5---5h7p5--------------------------------------------------------------
    5------------------------------------------------------------------------------------------------------5p3---5---3---- ดีดคอร์ด G

    ประมาณนี้ละ ชั่วๆ 100 ไม่ถูกให้เตะ
  • ปลาดุก*-*
    Guest
  • 12 พ.ย.2549,19:41น.
    paradoxเรารักนายโคตร
  • pfc
    Guest
  • 5 มี.ค.2550,19:47น.
    เพลงน่ารักมากๆ
  • ป่าน
    Guest
  • 21 เม.ย.2550,12:20น.
    ชอบมากเลยอะ พาราดด็อกเนี้ย สงการน์มาขอนแก่นด้วย เกือบทุกปีเลย 13 เม.ย 50
  • สาวก "หอยจ้อ" คับ
    Guest
  • 20 พ.ค.2550,20:56น.
    ~ paraDox ++ Lov3 U ^^
    พี่ต้า พี่บิ้ก พี่สอง พี่โจอี้
    ชอบโคตรเลยคับ
  • ตัวฮั่น
    Guest
  • 14 ต.ค.2550,12:08น.
    กำลังจะเล่นเพลงนี้เลย
1

ขอเชิญร่วมแสดงความคิดเห็นครับ

คลิกที่รูป เพื่อแทรกรูปลงในข้อความ
  • Member :
    username
    password
  • Not a member :
    name
    email