คอร์ดเพลง เนื้อเพลง ฟังเพลง

คอร์ดเพลง บุษบา

โมเดิร์น ด็อก (Modern Dog)

Print
บุษบาเกิดมากับความสดใส
โลกของเธอนั้นมีดอกไม้ในหัวใจ
วันทั้งวันชื่นชมชอบร้อยมาลัย
โลกสดใสไปด้วยมาลัยของเธอ

ดอกไม้นานาพรรณ
สีสันมากมายกันไป
กลิ่นหอมรัญจวนใจ
ประดับไว้ให้โลกนี้สวยงาม

* บรรจงร้อยเป็นมาลัย สนุกสุขใจหนักหนา
เป็นประจำทุกวันเวลา ไม่เคยเหนื่อยล้ากับมาลัย

แล้วเธอตื่นมากับความผิดหวัง ในวันนี้
โลกที่เคยดีไม่มีดอกไม้เหลืออยู่
โลกสดใสมันเป็นอะไรก็ไม่รู้
เห็นเห็นกันอยู่ จู่จู่ก็หายไป
ดอกไม้มันหายไป จากโลกอันกว้างใหญ่

(*)

แล้วบุษบาก็พบว่าความจริงนั้น
โลกที่มันไม่มีดอกไม้เหลืออยู่
เพราะเธอเด็ดไปมากมายเท่าไรก็ไม่รู้
เด็ดไปไม่เคยดู
จะเหลืออยู่ได้อย่างไร

(*)
http://www.musicatm.com/thai/คอร์ดเพลง-บุษบา-1225.html
ส่งเพลงนี้ให้เพื่อน
วันที่โพสต์ : 29 ม.ค.2547,17:49น.
จำนวนผู้ชม : 257296 คน / แสดงความคิดเห็น : 140 ครั้ง
โพสต์โดย


จาก: 007
Guest
เพลงฮิต
เพลงใหม่
เพลงแนะนำ
Fanpage
ข่าวสารจากเว็บครับ
เลือกแสดงเฉพาะ :

  • unknow
    Guest
  • 29 ม.ค.2547,18:44น.
    ยังไม่มีคะแนนสำหรับคอร์ดที่ดีที่สุด
    ช่วยกันกดให้คะแนนคอร์ดเพลงที่คุณชื่นชอบเพื่อนำขึ้นมาจัดแสดงไว้บนสุดนี้


    บุษบา - ModernDog (แกะเอง ผิดก็แก้ไม่ว่ากัน อย่าอวดเก่ง ไม่ชอบ )

    Intro: Bm D G F#7 (8times)

    Bm D G F#7
    บุษบาเธอมากับความสดใส
    Bm D G F#7
    โลกของเธอนั้นมีดอกไม้ในหัวใจ
    Bm D G F#7
    วันทั้งวันชื่นชมชอบร้อยมาลัย
    Bm D G F#7
    โลกสดใสไปด้วยมาลัยของเธอ
    Bm D G F#7 Bm D G F#7
    ดอกไม้นานาพันธุ์ สีสันมากมายกันไป
    Bm D G F#7 Bm D G F#7
    กลิ่นหอมรัญจวนใจ ประดับไว้ให้โลกนี้สวยงาม

    Instru: Bm D G F#7 (4times)

    Bm D G F#7Bm D G F#7
    * บรรจงร้อยเป็นมาลัย สนุกสุขใจหนักหนา
    Bm D G F#7 Bm D G F#7
    เป็นประจำทุกวันเวลา ไม่เคยเหนื่อยล้า กับมาลัย

    Instru: Bm D G F#7 (4times)

    Bm D G F#7
    แล้วเธอตื่นมากับความผิดหวังในวันนี้
    Bm D G F#7
    โลกที่เคยดีไม่มีดอกไม้เหลืออยู่
    Bm D G F#7
    โลกสดใสมันเป็นอะไรก็ไม่รู้
    Bm D G F#7 Bm D G
    เห็นๆกันอยู่จู่ๆก็หายไป
    F#7 Bm D G F#7 Bm D G F#7
    ดอกไม้มันหายไป จากโลกอันกว้างใหญ่

    (ซ้ำ *)

    Instru: Bm D G F#7 (4times)
    Bm D G F#7 (6times)

    Bm D G F#7
    แล้วบุษบาก็พบกับความจริงนั้น
    Bm D G F#7
    โลกที่มันไม่มีดอกไม้เหลืออยู่
    Bm D G F#7
    เพราะเธอเด็ดไปมากมายเท่าไรก็ไม่รู้
    Bm D G F#7
    เด็ดไปไม่เคยดูจะเหลืออยู่ได้อย่างไร

    Instru: Bm D G F#7 (3times)

    (ซ้ำ *)

    Instru: Bm D G F#7

    Bm D G F#7 Bm D G F#7
    มาลัย มาลัย
    Bm D G F#7 Bm D G F#7
    มาลัย มาลัย

    Instru: Bm D G F#7 (5times)
    Bm D G G G G F#7

    ((อัพเดทคอร์ดกีต้าร์))
  • น้ำหนึ่ง
    Guest
  • 29 ม.ค.2547,17:51น.
    อยากได้TABโซโล่เบสอ่ะถ้ามีก็บอกหน่อยน่ะ
  • unknow
    Guest
  • 29 ม.ค.2547,18:47น.
    คอร์ดเพลงนี้ยังไม่มีคะแนน
    (อย่าลืม ช่วยกันกดให้คะแนนคอร์ดเพลงที่คุณชื่นชอบ หรือตัดคะแนนคอร์ดที่คุณไม่ชอบได้เลย)

    โซโล่เบสก็ B D G F# มั้งนะ มันมีท่อนไหนจับรูดก็ไม่รู้จำไม่ได้
    ผมไม่ได้เล่นเบสนานแล้ว ( ปีกว่า ) - -"

    ((อัพเดทคอร์ดกีต้าร์))
  • น้ำหนึ่ง
    Guest
  • 29 ม.ค.2547,20:47น.
    ถ้าแกะได้ก็เขียนTABให้ดูหน่อยน่ะ
  • .....
    Guest
  • 29 ม.ค.2547,21:41น.
    รู้สึกว่านายจะเอาจากหนังสือนะ เราเคยเห็นอะ 
  • Dokapon
    Guest
  • 29 ม.ค.2547,22:03น.
    intro บุษบา

    2)--------------------------------------0
    3)-----------------------------4-----3
    4)-----4-0---2-0----0---5-----4
    5)---2------2------4----5-----4

    ไม่รู้ว่าแกะถูกหรือเปล่าน่ะ
    ถ้ามันผิดยังไงช่วยแก้ด้วยละกัน
  • unknow
    Guest
  • 30 ม.ค.2547,03:41น.
    คอร์ดเพลงนี้ยังไม่มีคะแนน
    (อย่าลืม ช่วยกันกดให้คะแนนคอร์ดเพลงที่คุณชื่นชอบ หรือตัดคะแนนคอร์ดที่คุณไม่ชอบได้เลย)
    ตามนั้นแหละ
    ((อัพเดทคอร์ดกีต้าร์))
  • unknow
    Guest
  • 30 ม.ค.2547,08:15น.
    คอร์ดเพลงนี้ยังไม่มีคะแนน
    (อย่าลืม ช่วยกันกดให้คะแนนคอร์ดเพลงที่คุณชื่นชอบ หรือตัดคะแนนคอร์ดที่คุณไม่ชอบได้เลย)

    วงผมก็เล่นงี้ครับ แล้วมันจะเหมือนหนังสือไม่ได้หรอครับ
    ทำไมชอบดีแต่ปากเนี่ย - -" ไม่ค่อยชอบเลยแหะ

    ((อัพเดทคอร์ดกีต้าร์))
  • ^^'
    Guest
  • 31 ม.ค.2547,18:09น.
    เบสมันจะมีท่อนนึงที่มันแบบว่า
    4)--------------4--4--4--------------------------------
    5)---2--2--2-------------------------5--4--2--0--2--2----
    6)--------------------------3--3--3--------------------
    เท่าที่เคยเล่นอ่ะครับ
  • Snake
    Guest
  • 31 ม.ค.2547,22:57น.
    Thanks!!!!!!!!!!
  • boy
    Guest
  • 2 ก.พ.2547,21:25น.
    อยากได้ mp3 อ่ะ ใครมีบอกหน่อยนะ  Thanks 
  • strar
    Guest
  • 4 ก.พ.2547,09:36น.
    verybest
  • แมน01
    Guest
  • 4 ก.พ.2547,13:51น.
    ช่ายครับ อินโทรมันถูกเป่า อ่ะ ทำไมผมเล่นไม่เหมือนอ่ะ แต่เบส ช่ายแน่นอน ครับ เล่นตามแล้ว
  • nos
    Guest
  • 14 ก.พ.2547,09:40น.
    ช่วยบอกเวบที่โหลดเพลงนี้ทีสิครับ  ขอบคุณครับ
    ((ขอคอร์ดกีต้าร์))
  • ดวงดี
    Guest
  • 15 ก.พ.2547,17:51น.
    ปัญญาอ่อน  เกินไปเยอะ   
  • แชมป์ มือกีต้าร์ วงPHYCO
    Guest
  • 22 ก.พ.2547,10:20น.
    แกะเก่งนะ เป็นกำลังใจให้ 
  • ปอนด์ (Guitar)
    Guest
  • 15 มี.ค.2547,10:51น.
    2)--------------------------------------0
    3)------------------------------------3-
    4)-----4-0---2-0----0----5-4---4-
    5)---2------2------4-----5----------
    6)-----------------------3-------------
  • ออฟเด็กราชบุรี
    Guest
  • 15 มี.ค.2547,12:26น.
    ดีครับชอบมาก  
  • เด็กหัดดีด
    Guest
  • 19 มี.ค.2547,15:23น.
    ไม่เข้าใจอธิบายที
  • MTzone Pink
    Guest
  • 21 มี.ค.2547,18:46น.
    ขอ tap solo หน่อยค่ะ อยากได้มากค่ะ  แกะเองแล้วงงอ่ะ
    ขอบคุณค่ะ
  • Junior_SD39
    Guest
  • 21 มี.ค.2547,21:00น.
    2)-----------------------------------------0-
    3)-------------------------------------3---
    4)-----4-0---2-0----0----5-----4-----
    5)---2------2------4-----5-----4-----
    6)-----------------------3-----2--------
    ชัว....ไม่ถูกหั้ยถีบบบบ
  • Junior_SD39
    Guest
  • 21 มี.ค.2547,21:02น.
    อยากได้tab soloตรงท่อนที่ใช้wah-wahอะคับ...ใครมีช่วยpostหน่อย
  • MT Pink
    Guest
  • 22 มี.ค.2547,16:58น.
    จาอาวท่อนsoloอ่ะค่ะ
  • โคนัน
    Guest
  • 23 มี.ค.2547,21:30น.
    ขอบคุณทุกคนนะที่ช่วยลงTab 
  • ทาม-เด็กนครศรีธรรมราช
    Guest
  • 23 มี.ค.2547,21:52น.
    1-------------------------------------------------------
    2---------------------------------------------------0---
    3-----------------------------------------------3-------
    4-------4---------------------------5--4--4--------------
    5---2------5--5--7--5-4--5--5---------------------------------
    6-------------------------------------------------------------------
  • ---
    Guest
  • 25 มี.ค.2547,20:07น.
    ผมว่า คนที่/21 อ่ะชัว เพราะผมก็ได้งั้น
  • Junior_SD39
    Guest
  • 28 มี.ค.2547,00:02น.
            
  • เด็กเทคโน
    Guest
  • 28 มี.ค.2547,02:39น.
    ผมก็รู้ท่อนอินโทรแต่กลัวผิดเดี๋ยวโดนด่า          
  • เด็กเทคโน ก.ท.ช.34.
    Guest
  • 28 มี.ค.2547,02:41น.
              
  • คนโง่
    Guest
  • 31 มี.ค.2547,22:46น.
    ช่วยสอน วิทีการอ่าน tab หน่อยคับ ในเวบผมเปิดไม่ได้อะคับ ยกตัวอย่างได้จะเปนพระคุนมากคับ 
  • guitar_man
    Guest
  • 3 เม.ย.2547,02:21น.
    คอร์ดเพลงนี้ยังไม่มีคะแนน
    (อย่าลืม ช่วยกันกดให้คะแนนคอร์ดเพลงที่คุณชื่นชอบ หรือตัดคะแนนคอร์ดที่คุณไม่ชอบได้เลย)
    เรามีแบบที่เราถนัดอ่ะ
    2)----------------------------------------------------0---
    3)-------------------------------------------------3------
    4)-----4-----------------------------5--------4---------
    5)--------5-----7--5--4--5-----5--------4------------
    6)--7--------7----------------3--------2---------------

    แล้วแต่คนถนัดนะ(หรือเอาแบบที่21ก้อดั้ย)
    ((อัพเดทคอร์ดกีต้าร์))
  • สาวก moderndog
    Guest
  • 6 เม.ย.2547,11:16น.
    คอร์ดเพลงนี้ยังไม่มีคะแนน
    (อย่าลืม ช่วยกันกดให้คะแนนคอร์ดเพลงที่คุณชื่นชอบ หรือตัดคะแนนคอร์ดที่คุณไม่ชอบได้เลย)
    ไม่รู้นะ แต่ผมเล่นแบบนี้

    ----------------------------------------------------------------------
    --------------------------------------0------------------------------
    ------------------------------------3--------------------------------
    -----4-2-0-2-0-----------5---4----------------------------------
    --2---------------4-5---5---4------------------------------------
    ------------------------3--------------------------------------------

    ถ้าไม่ใช้อย่างงัยก็บอกด้วย นะะะะะ โทษที
    ((อัพเดทแหล่งทดลองฟัง))
  • งงแล้วอะ
    Guest
  • 6 เม.ย.2547,13:49น.
    เชื่อใครดีเนีย
  • ArcAngel
    Guest
  • 6 เม.ย.2547,14:07น.
    1/-------------------------------------/--------------/------------
    2/-------------------------------------/--------------/-----------0
    3/-------------------------------------/------0------/--------3---
    4/-------4----0----2*----0-------0--/--0-------4-/-----4------
    5/---2-----------------------4-------/--------------/-4----------
    6/------------------------------------------------------------------

    แบ่งห้องให้ด้วยจะได้รู้จังหวะ
    ผมเล่นแบบนี้ลองเอาไปเล่นดู ถ้าไม่เหมือนหรือไม่ชอบก็ไม่ต้องเล่นตาม
    ( ตรงเลข 2 * ถ้ากัดปิ๊ค เสียงจะเท่มากอันนี้คิดเอง จริงๆไม่ต้องกัดก็เล่นได้ ลองดู)
  • Jonathan DAvid
    Guest
  • 7 เม.ย.2547,19:51น.
    ใช้แบบ21หารับทานมานานแล้ว 
  • ถึงกูไม่หล่อ แต่กูก็จนโว้ย
    Guest
  • 3 พ.ค.2547,18:00น.
    ผมว่าแบบนี้นะ  

    1--------------------------------------------------------
    2------------------------------------------------------0
    3--------------------------------------4------------3---
    4-----4---0---2---0------0---------5---5-------4-----
    5--2------------------4-----------5------------4-------
    6--------------------------------------------------------


    ลองเล่นดูคับ ถ้าไม่เหมือนอย่าว่ากันนะ เรามือใหม่
  • อิอิอิ
    Guest
  • 8 พ.ค.2547,19:24น.
    ผิดหมด ไม่รู้อะไร อิอิอิ    
  • P
    Guest
  • 8 พ.ค.2547,21:48น.
    อยากเล่นเปงอ่ะ
    มันเล่นไงครับเพลงนี้สอนหน่อย
  • นู๋เฮง
    Guest
  • 10 พ.ค.2547,11:44น.
    จับ คอร์ด F#7 ยังไงครับบอกที 
  • ถึงกูไม่หล่อ แต่กูก็จนโว้ย
    Guest
  • 12 พ.ค.2547,20:56น.
    คอร์ด F#7 อะหรอ จับเหมือน F# อะ  แต่ปล่อยนิ้วก้อยออก  แค่นี้เอง

    (คอร์ดทาบนะ)

    1)----2----I---------I
    2)----2----I---------I
    3)----2----I----3----I
    4)----2----I---------I
    5)----2----I----4----I
    6)----2----I---------I

    แค่เนี่ยแหละ

  • ลูกเจี๊ยบ
    Guest
  • 4 ก.ค.2547,01:38น.
    ต้องการท่อนsoloครับ
    เพิ่งหัดเล่นอะครับ
  • OxyGENz
    Guest
  • 17 ก.ค.2547,18:09น.
    จะอันใหน ๆ ๆ ๆ ๆ ก็เล่นได้เหมือนกันหมดแหละครับ ไม่มีใครเค้ามานั่งจ้องทีละตัวหรอก ทุกอันมันก็ คล้ายๆๆๆๆๆๆ กานหมดน้านแหละ พอเล่นไปมันก็ไม่ได้ยินทุกเม็ดหรอก     เอาเปงว่าใครลองเล่นให้หมดทุกอัน แล้วใครถนัดอันใหนก้อเอาอันนั้นไปใช้จะดีกว่านะ และใครที่มี แบบอื่นอีกก้อเอามาร่วมแสดง อีกนะ ครับ เผื่อจะมีอันที่ผมถนัดที่สุด   
  • ลูกเจี๊ยบ
    Guest
  • 22 ก.ค.2547,20:03น.
    ต้องการท่อนsoloครับ ช่วยหน่อยครับ!!
  • SooN
    Guest
  • 1 ส.ค.2547,21:41น.
    มันต้องมีคนโดนทีบซักคน
  • ชิน
    Guest
  • 28 ส.ค.2547,18:04น.
    -ขอโน๊ตฟหน่อยดิ
    ((ขอคอร์ดกีต้าร์))
  • 454545
    Guest
  • 5 ก.ย.2547,18:28น.
    คอร์ดเพลงนี้ยังไม่มีคะแนน
    (อย่าลืม ช่วยกันกดให้คะแนนคอร์ดเพลงที่คุณชื่นชอบ หรือตัดคะแนนคอร์ดที่คุณไม่ชอบได้เลย)
    บุษบา - ModernDog (แกะเอง ผิดก็แก้ไม่ว่ากัน อย่าอวดเก่ง ไม่ชอบ )

    Intro: Bm D G F#7 (8times)

    Bm D G F#7
    บุษบาเธอมากับความสดใส
    Bm D G F#7
    โลกของเธอนั้นมีดอกไม้ในหัวใจ
    Bm D G F#7
    วันทั้งวันชื่นชมชอบร้อยมาลัย
    Bm D G F#7
    โลกสดใสไปด้วยมาลัยของเธอ
    Bm D G F#7 Bm D G F#7
    ดอกไม้นานาพันธุ์ สีสันมากมายกันไป
    Bm D G F#7 Bm D G F#7
    กลิ่นหอมรัญจวนใจ ประดับไว้ให้โลกนี้สวยงาม

    Instru: Bm D G F#7 (4times)

    Bm D G F#7Bm D G F#7
    * บรรจงร้อยเป็นมาลัย สนุกสุขใจหนักหนา
    Bm D G F#7 Bm D G F#7
    เป็นประจำทุกวันเวลา ไม่เคยเหนื่อยล้า กับมาลัย

    Instru: Bm D G F#7 (4times)

    Bm D G F#7
    แล้วเธอตื่นมากับความผิดหวังในวันนี้
    Bm D G F#7
    โลกที่เคยดีไม่มีดอกไม้เหลืออยู่
    Bm D G F#7
    โลกสดใสมันเป็นอะไรก็ไม่รู้
    Bm D G F#7 Bm D G
    เห็นๆกันอยู่จู่ๆก็หายไป
    F#7 Bm D G F#7 Bm D G F#7
    ดอกไม้มันหายไป จากโลกอันกว้างใหญ่

    (ซ้ำ *)

    Instru: Bm D G F#7 (4times)
    Bm D G F#7 (6times)

    Bm D G F#7
    แล้วบุษบาก็พบกับความจริงนั้น
    Bm D G F#7
    โลกที่มันไม่มีดอกไม้เหลืออยู่
    Bm D G F#7
    เพราะเธอเด็ดไปมากมายเท่าไรก็ไม่รู้
    Bm D G F#7
    เด็ดไปไม่เคยดูจะเหลืออยู่ได้อย่างไร

    Instru: Bm D G F#7 (3times)

    (ซ้ำ *)

    Instru: Bm D G F#7

    Bm D G F#7 Bm D G F#7
    มาลัย มาลัย
    Bm D G F#7 Bm D G F#7
    มาลัย มาลัย

    Instru: Bm D G F#7 (5times)
    Bm D G G G G F#7
  • โคตรเซียน
    Guest
  • 20 ก.ย.2547,09:01น.
    คอร์ดเพลงนี้ยังไม่มีคะแนน
    (อย่าลืม ช่วยกันกดให้คะแนนคอร์ดเพลงที่คุณชื่นชอบ หรือตัดคะแนนคอร์ดที่คุณไม่ชอบได้เลย)
    ผมว่าแบบนี้นะ  

    1--------------------------------------------------------
    2------------------------------------------------------0
    3--------------------------------------4------------3---
    4-----4---0---2---0------0---------5---5-------4-----
    5--2------------------4-----------5------------4-------
    6--------------------------------------------------------

    ((อัพเดทแหล่งทดลองฟัง)) ((อัพเดทคอร์ดกีต้าร์)) ((ขอคอร์ดกีต้าร์))
  • เอิร์ธ
    Guest
  • 24 ก.ย.2547,20:39น.
    เก่งจริงแกะ solo ดิ
  • บักหำ
    Guest
  • 7 ต.ค.2547,15:59น.
    บักหำ        
    ((ขอคอร์ดกีต้าร์))
  • Guitar Man
    Guest
  • 12 ม.ค.2548,22:31น.
    คอร์ดเพลงนี้ยังไม่มีคะแนน
    (อย่าลืม ช่วยกันกดให้คะแนนคอร์ดเพลงที่คุณชื่นชอบ หรือตัดคะแนนคอร์ดที่คุณไม่ชอบได้เลย)
    ----------------------------------------------------------------------------------------------------
    -----------------------------------------------------------------------------------------------------
    ----------------------------------------------------------------3-----------------------------------
    -------4-0-------4-0----2-------0----------5-----------4---------------------------------------
    --2-----------2----------------4----------5----------4-------------------------------------------
    -----------------------------------------3----------------------------------------------------------

  • พงสุดหล่อ
    Guest
  • 29 ม.ค.2548,12:12น.
    ขอโน้กโซโล่เบสหน่อยจิคับ
  • มีอเบส
    Guest
  • 11 ก.พ.2548,20:16น.
    Tab Bass นะ 
    ท่อนโซโล่
    1:___________________________________
    2:_______5_5__5_____________________________
    3:__2__2_______________5_4_3_0_2_________________
    4:______________3_3__3_______________________

    ถ้าผิดก็อย่าว่ากันนะเพราะเพลงนี้ผมเล่นมานานแล้ว(มือเบสอะ)แกะมานานแล้ว
  • ไก่ สว.กพ
    Guest
  • 12 ก.พ.2548,23:43น.
    1)-------------------------------------------------------------------
    2)---------------------------------------------------------------2--
    3)-------------------------------------------0--------------3------
    4)--------4----------2-----------0----0---------4----4----------
    5)----2------5---2------5---4------------------------------------
    6)-------------------------------------------------------------------

    อ่ะ ของจิง เล่นดู เพี้ยงยังไงบอกละกันนะ!
  • ไก่ สว.กพ
    Guest
  • 12 ก.พ.2548,23:45น.
    เล่นตามนี้นะ อย่าไปอ้อมสาย ไม่งั้นไม่เหมือน 555555555+
  • ไก่ สว.กพ
    Guest
  • 12 ก.พ.2548,23:49น.
            ข้อแก้ไข นิดนึง ลืมอ่านะ
    1)-------------------------------------------------------------------
    2)---------------------------------------------------------------0--
    3)-------------------------------------------0--------------3------
    4)--------4----------2-----------0----0---------4----4----------
    5)----2------5---2------5---4------------------------------------
    6)-------------------------------------------------------------------
  • กอล์ฟ
    Guest
  • 23 ก.พ.2548,23:32น.
    2)-----------------------------------------------------------0------
    3)-------------------------------------------------------3----------
    4)------4--------2--------------------4--5--4----4--------------
    5)---2----5--2--------5---4---5---------------------------------
    6)-------------------------------------------------------------------
    จับเเบบทาบไปเลย ง่ายกว่า

    อันเนี๊ยเหมือนสุด
  • Dream..PLK
    Guest
  • 24 ก.พ.2548,21:02น.
    คอร์ดเพลงนี้ยังไม่มีคะแนน
    (อย่าลืม ช่วยกันกดให้คะแนนคอร์ดเพลงที่คุณชื่นชอบ หรือตัดคะแนนคอร์ดที่คุณไม่ชอบได้เลย)
    1----------------------------------------------------
    2------------------------------------------------------------0
    3---------------------------------------------------------3-
    4----------0----------------------------5-------------4----
    5-------9---------7/5--4--5------5--------------4------------
    6----7--------7-----------------3---------3-/-2------------
    Intro นะ ม่ายแน่นจัยว่าจาถูกอ่ะป่าวนะ ลองเล่นดู
  • TEK (EKG)
    Guest
  • 7 มี.ค.2548,11:50น.
    thank you everybody
    tek EKG band
  • อ.หมู คาไล
    Guest
  • 7 มี.ค.2548,23:34น.
    ผมว่าแบบนี้อ่าแน่นอน
    1--------------------------------------------------------
    2------------------------------------------------------0
    3--------------------------------------4------------3---
    4-----4---0---2---0------0---------5---5-------4-----
    5--2------------------4-----------5------------4-------
    6--------------------------------------------------------
  • นิค
    Guest
  • 9 มี.ค.2548,00:37น.
    1------------------------------------------------1-----------------
    2-----------------------------------------------1------------------------
    3----------------------------------------------2-----------------------
    4--------------7----5-----------------------3--------------------------------------
    5-----9---5-------------5------------3----------------------------------------------------
    6--7-------------------------3---1----------------------------------------------

    ไม่รุ้ถูกป่าวนะ
  • พงคุง
    Guest
  • 17 มี.ค.2548,23:26น.
    อยากได้ท่อนโซโลจังคับช่วยจัดให้ทีนะ 
  • ไม่รู้โว้ยย
    Guest
  • 5 เม.ย.2548,19:39น.
    ทำไมเบสท่อนโซโลได้งี้ง่ะ- -
    -----------------------------------------------------
    -----------------------------------------------------
    --22--22-----55--55----------------5-4-2-0--
    ------------------------------33--33--------------
  • RISHADAN PORT
    Guest
  • 22 เม.ย.2548,02:00น.
    คอร์ดเพลงนี้ยังไม่มีคะแนน
    (อย่าลืม ช่วยกันกดให้คะแนนคอร์ดเพลงที่คุณชื่นชอบ หรือตัดคะแนนคอร์ดที่คุณไม่ชอบได้เลย)
    ลืมแก้อะ ท่อนsoloมันมีคอร์ดดังนี้อะ

    Bm F#m G D C#m Bm A (6times)
  • กรุเอง
    Guest
  • 25 เม.ย.2548,23:55น.
    ขอให้ผู้อ่านฉิบหายพ่อเสียแม่เสียถ้าไม่โพสต่อ
  • มือใหม่หักเขียนแทป
    Guest
  • 2 พ.ค.2548,23:37น.
    คอร์ดเพลงนี้ยังไม่มีคะแนน
    (อย่าลืม ช่วยกันกดให้คะแนนคอร์ดเพลงที่คุณชื่นชอบ หรือตัดคะแนนคอร์ดที่คุณไม่ชอบได้เลย)
    อย่างนี้ก็ได้ 
    2----------------------------------------0--------------------------------------------------------------
    3-----------------------------4--------3--------------------------------------------------------------
    4-----------0------0------5-------4-------------------------------------------------------------------
    5--------9-------7----4-5-----4---------------------------------------------------------------------
    6-----7--------5-------------------------------------------------------------------------------------- ก็ไม่รู้ถูกจัยป่ะ แต่เราว่า ดนตรีไม่มีผิดหรอก มันอยู่ที่ความมันอ่านะ
  • ////
    Guest
  • 2 พ.ค.2548,23:58น.
    2----------------------------------------------0------
    3----------------------------------------4---3-------
    4-----------4--0----2---0-----0-----5---4--------
    5------2-----------2---------4------5---4----------

    ถ้าผิดถูกยังไงก็บอกด้วยคับเป็นน้องใหม่
  • โอ๊ด
    Guest
  • 11 พ.ค.2548,12:41น.
    คอร์ดเพลงนี้ยังไม่มีคะแนน
    (อย่าลืม ช่วยกันกดให้คะแนนคอร์ดเพลงที่คุณชื่นชอบ หรือตัดคะแนนคอร์ดที่คุณไม่ชอบได้เลย)
    intro
    E------------------------------------------------------------------
    B-----------------------------------------------------------------0
    G------------------------------------------------------------3----
    D-------4---0-----2--0-----0-----------5---4-------4---------
    A--2------------2--------4-----------5-----------4--------------
    E----------------------------------3-------------------------------


    ท่อนโซโล่ช่วงไหนก็ไม่รู้
    full full full full
    B----------------7^---7^---7^---7^---7---------------
    G------7----9--------------------------------9---7------
    D--9-----------------------------------------------------9
    A----------------------------------------------------------
    E----------------------------------------------------------



    เดียวท่อนโซโล่สุดหิตจะตามมาทีหลังนะ(สำหรับน้องนิคทีขอมานะ)
  • duan
    Guest
  • 28 พ.ค.2548,11:42น.
    เพลงนี้ดีนะอยากเล่นเป็านบ้างหาคอร์อยู่มาตั้งชาติ    
    ((ขอคอร์ดกีต้าร์))
  • เด็กช่างฝัน
    Guest
  • 4 มิ.ย.2548,13:44น.
    คัยมีท่อน solo บ้าง ช่วยบอกหน่อยคับ 

    ขอบคุณคร้าบ




    ((ขอคอร์ดกีต้าร์))
  • มือโซโล่ ส.ก.ส.
    Guest
  • 4 มิ.ย.2548,17:20น.
    B ---------------------------------------------------------------------0--------------
    G----------------------------------------------------4----------3--------------------
    D--------0-----2---0------0---0-----5--------4-----------------------------------
    A--2--2----2----------4-------------------------------------------------------------
    E--------------------------------------------------------------------------------------
  • 7 มิ.ย.2548,20:27น.
    1  -----------------------------------------------------------------------
    2 -----------------------------------------------------------------------
    3 -----------------------------------------3--2------------------------
    4 ----4--0--2--0-------------5--4--4-------------------------------
    5 -2----------------4--5--5------------------------------------------
    6 ----------------------------------------------------------------------

    by shadow1301
  • กรู
    Guest
  • 21 มิ.ย.2548,17:20น.
    ไม่อยากโชว์อะ
  • .1.2.3
    Guest
  • 26 มิ.ย.2548,15:10น.
    ..........................ily
  • เหอๆ
    Guest
  • 29 มิ.ย.2548,20:47น.
    เหงแต่ อินโทร โซโ ม่ะมีว่ะ//โพสต่อๆ
  • โอ๊ต
    Guest
  • 29 มิ.ย.2548,22:20น.
    คนที่34เล่นเหมือนผมเลย

    ArcAngel

    1/----------------/---------------------/-----------------------

    2/----------------/---------------------/----------------------0

    3/----------------/---------------------/------0-----------3---

    4/-------4----0-/---2*----0-------0--/--0----4-----4------

    5/---2-----------/------------4-------/-------------4----------

    6/------------------------------------------------------------------
    หมายเหตุ

    / =เว้นจังหวะ * = กดเส้นแล้วปล่อย

    อันนี้เหมือนสุดแหละลองมาทุกแบบ แต่ถ้าเล่นจังหวะไม่เข้าก็ไม่เหมือน
  • พาย
    Guest
  • 25 ก.ค.2548,17:54น.
    อยากได้intro แบบของจริงมาเลยอะ ใครร
    ช่วยส่งมาที่เมล์ panu_pnhotmail.com ให้หนร่อยสิจารอนะ
  • เอิร์ธ
    Guest
  • 29 ก.ค.2548,19:30น.
    มีคอร์ดแบบในvery common of moderndogอ่ะเอาป่ะง่ายด้วย
    คือ คอร์ดเบสน๊ะ B B/B D/D /G G/G B วกไปเรื่อยๆ
    มีท่อนขึ้นก่อนโซโล่เบส
    4----------------------------------------------------
    3-------------0--2----4----5--4/-------/4-5-5----2/-2-2
    2-------------------------------------5-5---------------------
    1-----------------------------------------------------------
    ดูจากขวามาซ้าย
  • Amiddhaput046
    Guest
  • 27 ส.ค.2548,10:02น.
    กะอีแค่ท่อน Intro ยังเถียงกันขนาดนี้ -_-" กำ ดูหลายๆ คนแล้วมันก็คล้ายกันหมดแหละ จริงๆ เล่นไปตามที่ถนัดแหละ
  • Nonsence
    Guest
  • 22 ก.ย.2548,19:03น.
    ขอ Tab Solo จ้า!! 
  • boy por
    Guest
  • 15 ธ.ค.2548,11:57น.
    โพสกันทำมัยเนี่ย
  • Conan
    Guest
  • 24 ธ.ค.2548,21:37น.
    คอร์ดเพลงนี้ยังไม่มีคะแนน
    (อย่าลืม ช่วยกันกดให้คะแนนคอร์ดเพลงที่คุณชื่นชอบ หรือตัดคะแนนคอร์ดที่คุณไม่ชอบได้เลย)
    INTRO 100%
    6)------------------------------------3--------2---------------
    5)----2----------0----------4---------------------------------
    4)-------4p0-------2p0------0------0-------------4-------
    3)------------------------------------------0-------------3----
    2)------------------------------------------------------------0-
    1)---------------------------------------------------------------
  • nick-noname
    Guest
  • 4 ม.ค.2549,14:05น.
    เล่น คอร์ด rock ไปเลย ตามจังหวะ 
  • 21 ม.ค.2549,21:30น.
    ...
  • -0-
    Guest
  • 5 ก.พ.2549,14:07น.
    อยากได้พาวเวอขอร์ดอะ ช่วยแกะหน่อยนะคับ
    ((ขอคอร์ดกีต้าร์))
  • ต๋อง
    Guest
  • 17 ก.พ.2549,13:50น.
    ท่อนโซโล่.....ใครมี..ได้โปรดเถอะครับ  โพรสให้หน่อยอยากได้  อยากได้ๆๆๆๆๆ




  • blackmoon
    Guest
  • 22 ก.พ.2549,14:03น.
    1--------------------------------------------------
    2-------------------------------------------------
    3--------------------------------------------------
    4------------4-4-----------------------------------
    5----2-2---------------5-4-2-0------------------
    6------------------3--------------------------------

    ลองดูได้ครับรับรองว่าไม่ผิดแน่

  • บริสุทธิ์ แมน
    Guest
  • 23 ก.พ.2549,12:27น.
    ผมอ่าน tab  ไม่เป็น  ช่วยแนะนำด้วยครับ
  • อาร์ม
    Guest
  • 26 ก.พ.2549,16:13น.
    tabเราก็ดูว่าตัวเลขตัวหน้าสุดอยู่ตรงเส้นอะไรเราก็กดตามเลขที่เขาบอกหมายถึงช่องที่เราต้องกดบนเส้นนั้นอย่างเช่นมีเลข2อยู่บนเส้น6ก็กดช่อง2บนสาย6 
  • โคตรคำ
    Guest
  • 27 ก.พ.2549,13:44น.
    คอร์ดเพลงนี้ยังไม่มีคะแนน
    (อย่าลืม ช่วยกันกดให้คะแนนคอร์ดเพลงที่คุณชื่นชอบ หรือตัดคะแนนคอร์ดที่คุณไม่ชอบได้เลย)
    ใช้ power chord    เช่น   chord    [Bm]

    3I---------------4-//----------------7----//------------------//---------------------
    4I[Bm]--------4-//--[D]---------7----//--[F#]------4---//--[G]--------5------
    5I--------2--------//-----------5--------//---------------4--//---------------5------
    6I-----------------//---------------------//----------2-------//----------3----------

    เเต่วเลาท่อนกลางเปลี่ยน[F#]
    3I--------11-----//-----------------2I--------------6---
    4I--------11-----//---หรือ---------3I--------------6---
    5I---9------------//-----------------4I--------4---------
  • มือขวา ป๊อด
    Guest
  • 27 ก.พ.2549,22:29น.
    เบสนะ ใช่จังหวะนี้
    ท่อนธรรมดา 5/------------2--------5---------------------5--4--3--2--0------2
    6/---------------------------- 3----------------------------------
    วนไปเรื่อยๆ
    ส่วนท่อนhook 5/----2------------------5---4----3-----2-----0---------2
    6/--------2------3
    เล่นวนกันเรื่อยๆครับ ถ้าใครมีอะไรที่ไม่เข้าใจอีเมลมาหาผมก้อได้ Jumnonghunhotmail.com
  • 123
    Guest
  • 24 มี.ค.2549,14:50น.
    bore
  • Drum P. Kidz
    Guest
  • 27 มี.ค.2549,19:26น.
    syber คำพูดจากผ.ท.ที่8 ที่คุณว่ามาน่ะ ผมไม่เห็นจะมีใครว่าอะไรคุณเลยนะ
    แล้วลักษณะที่คุณพูดมาเหมือนว่าคุณดีแต่ปากอย่างที่คุณพิมพิ์ไว้นะ
    ผมก็พึ่งเข้ามากระทู้นี้ เจอคำพูดคุณผมบอกตรงๆเลยนะ มันออกยียวนไปหน่อย พิมพ์ให้มันน่าอ่านหน่อยนะครับ
  • ซาตาน
    Guest
  • 28 มี.ค.2549,15:54น.
    เพลงแค่เนี่ยยังแกะกันไม่ได้ก็อย่ามามัวแต่เถียงกันเลยน้อง....กลับไปฝึกให้หนักๆแล้วค่อยมาอวดดี..ต่อปากต่อคำกัน...เห็นแล้วตลกโคตรเลยวะ....
  • 555+
    Guest
  • 28 มี.ค.2549,20:44น.
    แล้วเมิงเสื/อกอะไรกับเค้าวะ 555555+
  • ทัชกีต้าร์ ROCK
    Guest
  • 2 เม.ย.2549,13:57น.
    คอร์ดเพลงนี้ยังไม่มีคะแนน
    (อย่าลืม ช่วยกันกดให้คะแนนคอร์ดเพลงที่คุณชื่นชอบ หรือตัดคะแนนคอร์ดที่คุณไม่ชอบได้เลย)
    1-----------------------------------------------------------------------------------------
    2----------------------------14-----------------------------14-------------------------
    3----------12--12--12-------------12----12----12---------------------------------
    4-----------------------------------------------------------------------------------------
    5-----------------------------------------------------------------------------------------
    6-----------------------------------------------------------------------------------------

    ท่อนSOLO เปิดวาว วาว กูทำได้แค่นี้
  • ตั้ม monkey monk
    Guest
  • 8 เม.ย.2549,00:32น.
    คอร์ดเพลงนี้ยังไม่มีคะแนน
    (อย่าลืม ช่วยกันกดให้คะแนนคอร์ดเพลงที่คุณชื่นชอบ หรือตัดคะแนนคอร์ดที่คุณไม่ชอบได้เลย)
    1-----------------------------------------------------------
    2-----------------------------------------------------------
    3-----------------------------------------0----------------
    4------4--0--2*0----------5/4--4--3------------------
    5---2---------------4/5--5------------------------------
    6----------------------------------------------------------

    *=ปล่อยเฟสที่เรากด /=ไสล์สาย
    ลองดูคับ เราเล่นแบบนี้
  • ตั้ม monkey monk
    Guest
  • 8 เม.ย.2549,00:36น.
    แก้คับ
    1-----------------------------------------------------------
    2---------------------------------------------0-------------
    3----------------------------------------3----------------
    4------4--0--2*0----------5/4--4--------------------
    5---2---------------4/5--5------------------------------
    6----------------------------------------------------------

    *=ปล่อยเฟสที่เรากด /=ไสล์สาย
    ลองดูคับ เราเล่นแบบนี้
  • .....
    Guest
  • 9 เม.ย.2549,23:26น.
    จำใจโพส
  • ตูน
    Guest
  • 10 เม.ย.2549,16:45น.
    โซโล่เปง แต่ไม่รุ้จะบอกยังไงดีอะ เขียนTabในคอมไม่เปง
  • เอิร์ธ
    Guest
  • 12 เม.ย.2549,20:55น.
    กีต้าโซโล่ตอนใช้เอ็ฟเฟ๊กดีเลย์อ่ะเล่นไงอ่าบอกหน่อยที่เสียงมันดัง ว๊าฟๆๆๆๆๆว๊าฟฟฟฟฟ เหมือนๆจะเล่นวาว อ้ะ ตอนก่อนโซโบสและก็ก่อนจบเพลงอ่ะ
  • .....
    Guest
  • 17 เม.ย.2549,22:57น.
    อยากรู้ป่าว  ผมจะบอกให้โทร028548752   
  • ....
    Guest
  • 18 เม.ย.2549,17:12น.
    วงหมาทันสมัยนี่มันจัง
    ((ขอคอร์ดกีต้าร์))
  • กดดกห
    Guest
  • 2 พ.ค.2549,19:59น.
    เพลงนี้เล่นไงเหรอ 
  • GoHeies
    Guest
  • 7 พ.ค.2549,19:08น.
    แจ่มจัง เพิ่งเข้ามา เยี่ยมคับ 
  • aswalap999@msn.com
    Guest
  • 7 พ.ค.2549,20:05น.
    egh
  • asdfgh
    Guest
  • 9 พ.ค.2549,08:53น.
              
  • วิว-Black Shadow
    Guest
  • 10 มิ.ย.2549,09:41น.
    ถ้าอยากได้ mp3 แอดมานะคับ
  • -*-
    Guest
  • 22 มิ.ย.2549,21:57น.
    21ชัวสุดๆ
  • chuMc
    Guest
  • 7 ก.ค.2549,16:52น.
    ดีใจจังที่มีคนเสนอความคิดเห็นให้กับเพลงดีๆ ตั้งเยอะแยะ ใครถูกใจก้อเลือกตามใจชอบเลย ไม่มีใครผิดใครถูกหรอก     
  • โจ๊กวงHeeL
    Guest
  • 17 ก.ค.2549,16:23น.
    ผมอ่านtabไม่เป็นอ่าสอนที 
    ((ขอคอร์ดกีต้าร์))
  • เวน
    Guest
  • 8 ต.ค.2549,07:22น.
    ไอสาดดดดดดดดดดดดดดดดดดดดดดด
  • -ป็อปค้าบบบบบ-
    Guest
  • 18 ต.ค.2549,18:30น.
    เยอะจัด....ตาลายหมดแล้ววววววววว......แล้วแบบไหนมันชัวกันแน่เนี่ย
  • ๆพๆ
    Guest
  • 24 ต.ค.2549,05:26น.
    ไดๆไ
  • หัดเล่นจ้า
    Guest
  • 3 พ.ย.2549,23:35น.
    ช่วยเขียนแทป solo ให้หน่อยครับผู้น้อยไร้ความสามารถ งง   ขอบคุณล่วงหน้านะครับ
  • คนขาจร
    Guest
  • 24 พ.ย.2549,10:45น.
    ว่างๆจะแก่ให้ครับ   
  • โซโล่ หญิง ศรีราช
    Guest
  • 27 พ.ย.2549,13:11น.
    เออดีเหนาะนู๋จ่ได้เอาไปเลนมั้งอ่า ขอบคุณค่ะ
    ((ขอคอร์ดกีต้าร์))
  • Tor-nado
    Guest
  • 28 พ.ย.2549,19:17น.
    อยากได้ tab SOLO แบบเต็ม และชัวร์ๆครับ
  • มือ solo ส.ก.ส. คนเดิม
    Guest
  • 1 ธ.ค.2549,12:56น.
    -------------------------------------------------------------------------------
    ----------------------------------------------------------------------0--------
    ------------------------------------------------------------------3------------
    --------4----------2--0------0-----------5---------------4------------------
    ----2------5--2----------4-----------5--------------4-----------------------
    ------------------------------------3--------------2---------------------------
  • แก๊งฉับฉน
    Guest
  • 16 ธ.ค.2549,11:35น.
    ท่อนแรกเล่นไงอ่ะ
    ทำไม่ถูกคัยรู้สอนหน่อยเด
    ((ขอคอร์ดกีต้าร์))
  • ...
    Guest
  • 19 ธ.ค.2549,20:29น.
    ขอท่อนอินโทรฮ่ะ
  • 222
    Guest
  • 26 ธ.ค.2549,18:41น.
    ขอSoLoทีนะครับ Plz
  • โซดา
    Guest
  • 7 ม.ค.2550,20:50น.
    thanks
  • ณัฏฐพล
    Guest
  • 12 ม.ค.2550,19:52น.
    นัทรักแตงนะ ((ขอคอร์ดกีต้าร์))
  • ดั
    Guest
  • 15 ม.ค.2550,10:13น.
    มันมากจ้า
  • .......
    Guest
  • 28 ม.ค.2550,20:56น.
    แมงเพลงนี้กี่ปีละ ยังไม่มีใครลงsolo เลย - - แกะเองแมงก็ฟังรู้เรื่อง 5555+

  • Guest
  • 29 ม.ค.2550,08:05น.
    ใครเป็นเซียนขอคารวะ และก็ขอแท็บ โซโล่ เต็มเต็มหน่อย อยากได้เล่นไม่ละเอียดสักที
  • มนตรา--ตรีเมฆ-หมู-นนทบุรี
    Guest
  • 2 ก.พ.2550,12:05น.
    สวัสดีครับทุกท่านแวะเยี่ยมชมครับ
  • มนตรา-ตรีเมฆ-หมู--นนทบุรี
    Guest
  • 2 ก.พ.2550,12:06น.
    ดีใจที่ค้นพบ
  • มนตรา--ตรีเมฆ-หมู-นนทบุรี
    Guest
  • 2 ก.พ.2550,12:07น.
    โชคดีลาก่อน
  • มนตรา--ตรีเมฆ-หมู-นนทบุรี
    Guest
  • 2 ก.พ.2550,12:08น.
    เพลง--สนุกดี-ครับ--บุษบา--
  • 5 ก.พ.2550,07:17น.
    ขอแทปท่อน Solo หน่อยครับได้โปรด
  • Dang Lotus ครับ ผม
    Guest
  • 7 ก.พ.2550,18:51น.
    ขอบคุณสำหรับคนแกะคอร์ดครับ กำลังหาคอร์ดเพลงนี้อยู่
  • peat
    Guest
  • 10 มี.ค.2550,22:20น.
    --------------------------------------------------------------------
    -----------------------------------------------------------------0---
    -------------------------------------------------------------3-------
    ------4---0-----2---0-------0------------------------4-------------------
    --2----------0-----------4-----------5---5-------4---------------------
    ----------------------------------3-------------2----------------------- จากวงmoderndog ครับ
    ไม่ถูกให้เอาเท้าเหยียบขี้มาป้ายหน้าเลย แสดด
  • CrueL
    Guest
  • 14 มี.ค.2550,14:38น.
    ใครหูทิพลงsoloดิ๊
  • เด็ก Graffictola....
    Guest
  • 20 พ.ค.2550,14:30น.
    อยากได้ท่อน solo ท่อนแรกใครใครเป็นก็มาสอนหน่อยนะ ((ขอคอร์ดกีต้าร์))
  • ต๋อง
    Guest
  • 12 มิ.ย.2550,22:22น.
    ช่วยเขียน เนื้อพร้อมคอร์ดเพลงหมดเวลาให้หน่อย
  • ~DeK~Zaa~
    Guest
  • 18 ก.ค.2550,21:02น.
    เชื่อใครดีอ่าคับ ((ขอคอร์ดกีต้าร์))
  • ตอบทีนาคับ
    Guest
  • 19 ก.ค.2550,22:24น.
    แล้วจังหว่ะหล่ะคับ ขเบ็ท1ชั้น2ชั้นมันดูยังไงในเนี้ยะ มีแต่ให้กดสาย
    ถ้าในหนังสือจะมีโน้ตบอกอยู่อ่ะคับ
  • เรฟูจี
    Guest
  • 20 ก.ค.2550,16:26น.
    อยากได้ ท่อนโซโล่ เบส ครับ บอกผมหน่อยน้า
  • แบบนี้
    Guest
  • 26 ก.ค.2550,22:32น.
    3)-------------------------------------3*4---
    4)-----4-0---2-0----0----5-----4-----
    5)---2------2------4-----5-----4-----
    6)-----------------------3-----2--------
  • Sid
    Guest
  • 2 ส.ค.2550,22:43น.

    โซโล่เบส
    3)--2-2------------5-4-2-0-2-2
    4)-------2-2-3-3------------------
    เอาไปเป็นแนวแกะเองนะครับ
  • เด็ก แก้ง LAVENDER
    Guest
  • 24 ส.ค.2550,11:01น.
    คอร์ดมั่วป่าวอ่ะ
    มันไม่ใช่ป่าว
    มันต้อง C / Db / Ab / G
    ใช่ป่าว
  • คิดว่าเหมือน
    Guest
  • 25 ส.ค.2550,16:20น.

    โซโล่เบส
    2)---------4-4--------------------------4-4--------------------------
    3)--2-2---------0-0-5-4-2-0-2-2----------0-0-5-4-2-0-2-2---
    4)-----------------------------------------------------------------------
  • Aot bass man
    Guest
  • 29 ส.ค.2550,12:02น.
    อยากเรียนการฟัง เเละการเล่นเบสให้คอดเหมือนกีต้า
  • แม็ค วง Control_Rock
    Guest
  • 25 ก.ย.2550,21:04น.
    ขอท่อน SoLo เอาให้มันแน่นอนได้ไหมคับ เล่นแบบนี้มัน งง น่ะ Intro ได้แน่นอนดีแล้วคับ
  • Kurt
    Guest
  • 7 ต.ค.2550,09:32น.
    ที่ดูมาผิดหมดเลยเราก็เล่นเพลงนี้อยู่ - -
  • kurt
    Guest
  • 7 ต.ค.2550,09:35น.
    ที่ดูมาผิดหมดเลยแต่ไม่รู้จะเขียนลงให้ยังไงเหมือนกัน
  • Kurt
    Guest
  • 7 ต.ค.2550,09:40น.
    คอร์ดเพลงนี้ยังไม่มีคะแนน
    (อย่าลืม ช่วยกันกดให้คะแนนคอร์ดเพลงที่คุณชื่นชอบ หรือตัดคะแนนคอร์ดที่คุณไม่ชอบได้เลย)


    1--------------------------------------------------------------------
    2--------------------------------------------------------------------
    3--------------------------------------------------------------------
    4-------------------------------------------------------------------
    5-----------------------------------------------------------------
    6----------------------------------------------------------------------
  • Zixga
    Guest
  • 8 ต.ค.2550,04:09น.
    เพลงอะไรมั่งอ่ะคับที่เอามาเล่นสดแล้วคนฟังชอบ
  • bvlive
    Guest
  • 11 ต.ค.2550,12:04น.
    เพลงคำถามคับผม เล่นสดแล้วดีมากฯ ผมเอาประกวดแว้ว คนชอบเยอะ
  • Zixga
    Guest
  • 11 ต.ค.2550,12:45น.
    คำถามของใครคับช่วยบอกทีนะเด๋วจะลองหามาฟัง
  • ส้นตรีน
    Guest
  • 11 พ.ย.2550,13:38น.
    จำใจโพสแล้วมืงโพสหาพ่อมืงหรอ
  • XIII
    Guest
  • 20 พ.ย.2550,09:20น.
    ขอเบสแบบเต็มไพลงเลยได้ป่าวคับ ((ขอคอร์ดกีต้าร์))
  • คำเอิร์น
    Guest
  • 1 ธ.ค.2550,08:36น.
    ผมเอาเพลงนี้ขึ้นร้องประกวดได้ที่1ด้วยขอบคุณสำหรับเพลงนี้ครับ
  • อาร์ม
    Guest
  • 13 ธ.ค.2550,15:14น.
    ผมเล่นได้จบเพลงเลย เบลด กีต้าร์ แกะมาหมดแล้วคัฟ อยากรู้โทรมา 084-5230728 ((ขอคอร์ดกีต้าร์))
  • เด็กน้อย
    Guest
  • 13 ธ.ค.2550,21:55น.
    เก่งกันจังอะ แต่เราอ่านม่ายเป้นเร้ยยยยยย แต่เท่าที่เราดูมานะ ที่แต่ละคนแกะมามันก็ใช้ได้ทั้งนั้นนะ

    ลองเอาไปเล่นตามดู บางทีคุณอาจจะได้อะไรเพิ่มมาก็ได้นะ
  • Stallker
    Guest
  • 24 ธ.ค.2550,15:38น.



    ตอนโซโล่อะครับ คิดว่าน่าจะถูกใจ นะ

    1)-------------------------------------------------------------------------
    2)---------4-4---------------------------------4-4----------------------
    3)---2-2--------0-0-4-5-4-3-0-----2-2---------0-0-4-5-4-3-0---
    4)-------------------------------------------------------------------------
    5)-------------------------------------------------------------------------
  • moo
    Guest
  • 14 ก.พ.2551,00:12น.


    3-------2-2-2--/---5-5-5-------------------------
    4--------------------------------3-3----2-2-2-----



    SoLo


    3 ---------2-2----0---7-7----7--0-0---0--5-4-3-0---
    4-----------------------------------------------------------



  • AbCdE
    Guest
  • 16 ก.พ.2551,23:19น.
    เล่น ยาก มาก (ก้อพึ่งหัดเร่ร)
  • มอส
    Guest
  • 19 ก.พ.2551,19:22น.
    อยากได้เพลงนี้อะ
  • 8 ก.ย.2556,12:23น.
    คอร์ดเพลงนี้ยังไม่มีคะแนน
    (อย่าลืม ช่วยกันกดให้คะแนนคอร์ดเพลงที่คุณชื่นชอบ หรือตัดคะแนนคอร์ดที่คุณไม่ชอบได้เลย)
    บุษบา
    Intro:
    Bm / D / G / F# (X8)

    Bm D G F#
    บุษบาเกิดมากับความสดใส
    Bm D G F#
    โลกของเธอนั้นมีดอกไม้ในหัวใจ
    Bm D G F#
    วันทั้งวันชื่นชมชอบร้อยมาลัย
    Bm D G F#
    โลกสดใสไปด้วยมาลัยของเธอ

    Bm D G F# Bm D G F#
    ดอกไม้นานาพรรณ สีสันมากมายกันไป
    Bm D G F#
    กลิ่นหอมรัญจวนใจ
    Bm D G F#
    ประดับไว้ให้โลกนี้สวยงาม

    Instrument:
    Bm / D / G / F# (X4)

    Bm D G F# Bm D G F#
    * บรรจงร้อยเป็นมาลัย สนุกสุขใจหนักหนา
    Bm D G F#
    เป็นประจำทุกวันเวลา
    Bm D G F#
    ไม่เคยเหนื่อยล้า..กับมาลัย

    Instrument:
    Bm / D / G / F# (X4)

    Bm D G F#
    แล้วเธอตื่นมากับความผิดหวังในวันนี้
    Bm D G F#
    โลกที่เคยดีไม่มีดอกไม้เหลืออยู่
    Bm D G F#
    โลกสดใสมันเป็นอะไรก็ไม่รู้
    Bm D G F# Bm D G
    เห็นเห็นกันอยู่ จู่จู่ก็หายไป

    F# Bm D
    ดอกไม้มันหายไป
    G F# Bm D G F#
    จากโลกอันกว้างใหญ่

    Repeat *

    Instrument:
    Bm / D / G / F# (X12)

    Bm D G F#
    แล้วบุษบาก็พบกับความจริงนั้น
    Bm D G F#
    โลกที่มันไม่มีดอกไม้เหลืออยู่
    Bm D G F#
    เพราะเธอเด็ดไปมากมายเท่าไรก็ไม่รู้
    Bm D G F#
    เด็ดไปไม่เคยดู จะเหลืออยู่ได้อย่างไร

    Instrument:
    Bm / D / G / F# (X3)

    repeat *

    Outro:
    Bm / D / G / F# (X9)
    Bm / D / G / G / G / G / F#
  • 22 ก.ย.2557,01:35น.
    คอร์ดเพลงนี้ยังไม่มีคะแนน
    (อย่าลืม ช่วยกันกดให้คะแนนคอร์ดเพลงที่คุณชื่นชอบ หรือตัดคะแนนคอร์ดที่คุณไม่ชอบได้เลย)
    (ดนตรี) / Am C / F E / (8 รอบ)
    
    Am C              F          E Am        C               F         E
     บุษบาเกิดมากับความสดใส  โลกของเธอนั้นมีดอกไม้ในหัวใจ
    Am    C                F       E Am      C              F         E
     วันทั้งวันชื่นชมชอบร้อยมาลัย โลกสดใสไปด้วยมาลัยของเธอ
    Am    C    F     E Am C      F         E 
     ดอกไม้นานาพรรณ สีสันมากมายกันไป
    Am   C    F        E Am      C          F     E  
     กลิ่นหอมรัญจวนใจ  ประดับไว้ให้โลกนี้สวยงาม
     
    (ดนตรี) / Am C / F E / (4 รอบ)
    
    Am    C  F           E Am       C        F   E 
    * บรรจงร้อยเป็นมาลัย  สนุกสุขใจหนักหนา
    Am        C       F   E                   Am C   F  E
       เป็นประจำทุกวันเวลา ไม่เคยเหนื่อยล้า  กับมาลัย
    
    (ดนตรี) / Am C / F E / (4 รอบ)
    
    Am           C                 F         E Am         C             F         E
      แล้วเธอตื่นมากับความผิดหวังในวันนี้  โลกที่เคยดีไม่มีดอกไม้เหลืออยู่
    Am        C              F     E Am       C         F        E
      โลกสดใสมันเป็นอะไรก็ไม่รู้  เห็นเห็นกันอยู่ จู่จู่ก็หายไป 
    Am C F       E          Am C F       E               Am C F E
              ดอกไม้มันหายไป       จากโลกอันกว้างใหญ่
     
    (ซ้ำ *)
    
    (ดนตรี) / Am C / F E / (8 รอบ)
    
    Am C              F          E Am        C               F         E 
    แล้วบุษบาก็พบว่าความจริงนั้น โลกที่มันไม่มีดอกไม้เหลืออยู่
    Am C              F          E Am        C               F         E 
    เพราะเธอเด็ดไปมากมายเท่าไรก็ไม่รู้ เด็ดไปไม่เคยดู จะเหลืออยู่ได้อย่างไร
    
    (ดนตรี) / Am C / F E / (4 รอบ)
     
    (ซ้ำ *)
    
    (ดนตรี) / Am C / F E / (8 รอบ)
1

ขอเชิญร่วมแสดงความคิดเห็นครับ

คลิกที่รูป เพื่อแทรกรูปลงในข้อความ
  • Member :
    username
    password
  • Not a member :
    name
    email
Loading