Loading

คอร์ดเพลง บุษบา

โมเดิร์น ด๊อก (Modern Dog)

อัพโหลดคลิปเพลงนี้ที่คุณ ร้อง/เล่น ด้วยตัวคุณเอง ได้แล้ววันนี้
ระหว่างการทดสอบระบบหากพบข้อผิดพลาด กรุณาแจ้งที่นี่
บุษบาเกิดมากับความสดใส
โลกของเธอนั้นมีดอกไม้ในหัวใจ
วันทั้งวันชื่นชมชอบร้อยมาลัย
โลกสดใสไปด้วยมาลัยของเธอ

ดอกไม้นานาพรรณ
สีสันมากมายกันไป
กลิ่นหอมรัญจวนใจ
ประดับไว้ให้โลกนี้สวยงาม

* บรรจงร้อยเป็นมาลัย สนุกสุขใจหนักหนา
เป็นประจำทุกวันเวลา ไม่เคยเหนื่อยล้ากับมาลัย

แล้วเธอตื่นมากับความผิดหวัง ในวันนี้
โลกที่เคยดีไม่มีดอกไม้เหลืออยู่
โลกสดใสมันเป็นอะไรก็ไม่รู้
เห็นเห็นกันอยู่ จู่จู่ก็หายไป
ดอกไม้มันหายไป จากโลกอันกว้างใหญ่

(*)

แล้วบุษบาก็พบว่าความจริงนั้น
โลกที่มันไม่มีดอกไม้เหลืออยู่
เพราะเธอเด็ดไปมากมายเท่าไรก็ไม่รู้
เด็ดไปไม่เคยดู
จะเหลืออยู่ได้อย่างไร

(*)
ส่งเพลงนี้ให้เพื่อน
วันที่โพสต์ : 29 ม.ค.2547,17:49น.
จำนวนผู้ชม : 255452 คน / แสดงความคิดเห็น : 138 ครั้ง
โพสต์โดย


จาก: 007
Guest
เพลงแนะนำ
เพลงฮิต
เลือกแสดงเฉพาะ :

  • unknow
    Guest
  • 29 ม.ค.2547,18:44น.

    บุษบา - ModernDog (แกะเอง ผิดก็แก้ไม่ว่ากัน อย่าอวดเก่ง ไม่ชอบ )

    Intro: Bm D G F#7 (8times)

    Bm D G F#7
    บุษบาเธอมากับความสดใส
    Bm D G F#7
    โลกของเธอนั้นมีดอกไม้ในหัวใจ
    Bm D G F#7
    วันทั้งวันชื่นชมชอบร้อยมาลัย
    Bm D G F#7
    โลกสดใสไปด้วยมาลัยของเธอ
    Bm D G F#7 Bm D G F#7
    ดอกไม้นานาพันธุ์ สีสันมากมายกันไป
    Bm D G F#7 Bm D G F#7
    กลิ่นหอมรัญจวนใจ ประดับไว้ให้โลกนี้สวยงาม

    Instru: Bm D G F#7 (4times)

    Bm D G F#7Bm D G F#7
    * บรรจงร้อยเป็นมาลัย สนุกสุขใจหนักหนา
    Bm D G F#7 Bm D G F#7
    เป็นประจำทุกวันเวลา ไม่เคยเหนื่อยล้า กับมาลัย

    Instru: Bm D G F#7 (4times)

    Bm D G F#7
    แล้วเธอตื่นมากับความผิดหวังในวันนี้
    Bm D G F#7
    โลกที่เคยดีไม่มีดอกไม้เหลืออยู่
    Bm D G F#7
    โลกสดใสมันเป็นอะไรก็ไม่รู้
    Bm D G F#7 Bm D G
    เห็นๆกันอยู่จู่ๆก็หายไป
    F#7 Bm D G F#7 Bm D G F#7
    ดอกไม้มันหายไป จากโลกอันกว้างใหญ่

    (ซ้ำ *)

    Instru: Bm D G F#7 (4times)
    Bm D G F#7 (6times)

    Bm D G F#7
    แล้วบุษบาก็พบกับความจริงนั้น
    Bm D G F#7
    โลกที่มันไม่มีดอกไม้เหลืออยู่
    Bm D G F#7
    เพราะเธอเด็ดไปมากมายเท่าไรก็ไม่รู้
    Bm D G F#7
    เด็ดไปไม่เคยดูจะเหลืออยู่ได้อย่างไร

    Instru: Bm D G F#7 (3times)

    (ซ้ำ *)

    Instru: Bm D G F#7

    Bm D G F#7 Bm D G F#7
    มาลัย มาลัย
    Bm D G F#7 Bm D G F#7
    มาลัย มาลัย

    Instru: Bm D G F#7 (5times)
    Bm D G G G G F#7

    ((อัพเดทคอร์ดกีต้าร์))
  • unknow
    Guest
  • 29 ม.ค.2547,18:44น.

    บุษบา - ModernDog (แกะเอง ผิดก็แก้ไม่ว่ากัน อย่าอวดเก่ง ไม่ชอบ )

    Intro: Bm D G F#7 (8times)

    Bm D G F#7
    บุษบาเธอมากับความสดใส
    Bm D G F#7
    โลกของเธอนั้นมีดอกไม้ในหัวใจ
    Bm D G F#7
    วันทั้งวันชื่นชมชอบร้อยมาลัย
    Bm D G F#7
    โลกสดใสไปด้วยมาลัยของเธอ
    Bm D G F#7 Bm D G F#7
    ดอกไม้นานาพันธุ์ สีสันมากมายกันไป
    Bm D G F#7 Bm D G F#7
    กลิ่นหอมรัญจวนใจ ประดับไว้ให้โลกนี้สวยงาม

    Instru: Bm D G F#7 (4times)

    Bm D G F#7Bm D G F#7
    * บรรจงร้อยเป็นมาลัย สนุกสุขใจหนักหนา
    Bm D G F#7 Bm D G F#7
    เป็นประจำทุกวันเวลา ไม่เคยเหนื่อยล้า กับมาลัย

    Instru: Bm D G F#7 (4times)

    Bm D G F#7
    แล้วเธอตื่นมากับความผิดหวังในวันนี้
    Bm D G F#7
    โลกที่เคยดีไม่มีดอกไม้เหลืออยู่
    Bm D G F#7
    โลกสดใสมันเป็นอะไรก็ไม่รู้
    Bm D G F#7 Bm D G
    เห็นๆกันอยู่จู่ๆก็หายไป
    F#7 Bm D G F#7 Bm D G F#7
    ดอกไม้มันหายไป จากโลกอันกว้างใหญ่

    (ซ้ำ *)

    Instru: Bm D G F#7 (4times)
    Bm D G F#7 (6times)

    Bm D G F#7
    แล้วบุษบาก็พบกับความจริงนั้น
    Bm D G F#7
    โลกที่มันไม่มีดอกไม้เหลืออยู่
    Bm D G F#7
    เพราะเธอเด็ดไปมากมายเท่าไรก็ไม่รู้
    Bm D G F#7
    เด็ดไปไม่เคยดูจะเหลืออยู่ได้อย่างไร

    Instru: Bm D G F#7 (3times)

    (ซ้ำ *)

    Instru: Bm D G F#7

    Bm D G F#7 Bm D G F#7
    มาลัย มาลัย
    Bm D G F#7 Bm D G F#7
    มาลัย มาลัย

    Instru: Bm D G F#7 (5times)
    Bm D G G G G F#7

    ((อัพเดทคอร์ดกีต้าร์))
  • unknow
    Guest
  • 29 ม.ค.2547,18:47น.

    โซโล่เบสก็ B D G F# มั้งนะ มันมีท่อนไหนจับรูดก็ไม่รู้จำไม่ได้
    ผมไม่ได้เล่นเบสนานแล้ว ( ปีกว่า ) - -"

    ((อัพเดทคอร์ดกีต้าร์))
  • unknow
    Guest
  • 30 ม.ค.2547,03:41น.
    ตามนั้นแหละ
    ((อัพเดทคอร์ดกีต้าร์))
  • unknow
    Guest
  • 30 ม.ค.2547,08:15น.

    วงผมก็เล่นงี้ครับ แล้วมันจะเหมือนหนังสือไม่ได้หรอครับ
    ทำไมชอบดีแต่ปากเนี่ย - -" ไม่ค่อยชอบเลยแหะ

    ((อัพเดทคอร์ดกีต้าร์))
  • guitar_man
    Guest
  • 3 เม.ย.2547,02:21น.
    เรามีแบบที่เราถนัดอ่ะ
    2)----------------------------------------------------0---
    3)-------------------------------------------------3------
    4)-----4-----------------------------5--------4---------
    5)--------5-----7--5--4--5-----5--------4------------
    6)--7--------7----------------3--------2---------------

    แล้วแต่คนถนัดนะ(หรือเอาแบบที่21ก้อดั้ย)
    ((อัพเดทคอร์ดกีต้าร์))
  • สาวก moderndog
    Guest
  • 6 เม.ย.2547,11:16น.
    ไม่รู้นะ แต่ผมเล่นแบบนี้

    ----------------------------------------------------------------------
    --------------------------------------0------------------------------
    ------------------------------------3--------------------------------
    -----4-2-0-2-0-----------5---4----------------------------------
    --2---------------4-5---5---4------------------------------------
    ------------------------3--------------------------------------------

    ถ้าไม่ใช้อย่างงัยก็บอกด้วย นะะะะะ โทษที
    ((อัพเดทแหล่งทดลองฟัง))
  • โคตรเซียน
    Guest
  • 20 ก.ย.2547,09:01น.
    ผมว่าแบบนี้นะ  

    1--------------------------------------------------------
    2------------------------------------------------------0
    3--------------------------------------4------------3---
    4-----4---0---2---0------0---------5---5-------4-----
    5--2------------------4-----------5------------4-------
    6--------------------------------------------------------

    ((อัพเดทแหล่งทดลองฟัง)) ((อัพเดทคอร์ดกีต้าร์)) ((ขอคอร์ดกีต้าร์))
  • Guitar Man
    Guest
  • 12 ม.ค.2548,22:31น.
    ----------------------------------------------------------------------------------------------------
    -----------------------------------------------------------------------------------------------------
    ----------------------------------------------------------------3-----------------------------------
    -------4-0-------4-0----2-------0----------5-----------4---------------------------------------
    --2-----------2----------------4----------5----------4-------------------------------------------
    -----------------------------------------3----------------------------------------------------------

  • Dream..PLK
    Guest
  • 24 ก.พ.2548,21:02น.
    1----------------------------------------------------
    2------------------------------------------------------------0
    3---------------------------------------------------------3-
    4----------0----------------------------5-------------4----
    5-------9---------7/5--4--5------5--------------4------------
    6----7--------7-----------------3---------3-/-2------------
    Intro นะ ม่ายแน่นจัยว่าจาถูกอ่ะป่าวนะ ลองเล่นดู
  • RISHADAN PORT
    Guest
  • 22 เม.ย.2548,02:00น.
    ลืมแก้อะ ท่อนsoloมันมีคอร์ดดังนี้อะ

    Bm F#m G D C#m Bm A (6times)
  • มือใหม่หักเขียนแทป
    Guest
  • 2 พ.ค.2548,23:37น.
    อย่างนี้ก็ได้ 
    2----------------------------------------0--------------------------------------------------------------
    3-----------------------------4--------3--------------------------------------------------------------
    4-----------0------0------5-------4-------------------------------------------------------------------
    5--------9-------7----4-5-----4---------------------------------------------------------------------
    6-----7--------5-------------------------------------------------------------------------------------- ก็ไม่รู้ถูกจัยป่ะ แต่เราว่า ดนตรีไม่มีผิดหรอก มันอยู่ที่ความมันอ่านะ
  • โอ๊ด
    Guest
  • 11 พ.ค.2548,12:41น.
    intro
    E------------------------------------------------------------------
    B-----------------------------------------------------------------0
    G------------------------------------------------------------3----
    D-------4---0-----2--0-----0-----------5---4-------4---------
    A--2------------2--------4-----------5-----------4--------------
    E----------------------------------3-------------------------------


    ท่อนโซโล่ช่วงไหนก็ไม่รู้
    full full full full
    B----------------7^---7^---7^---7^---7---------------
    G------7----9--------------------------------9---7------
    D--9-----------------------------------------------------9
    A----------------------------------------------------------
    E----------------------------------------------------------



    เดียวท่อนโซโล่สุดหิตจะตามมาทีหลังนะ(สำหรับน้องนิคทีขอมานะ)
  • Conan
    Guest
  • 24 ธ.ค.2548,21:37น.
    INTRO 100%
    6)------------------------------------3--------2---------------
    5)----2----------0----------4---------------------------------
    4)-------4p0-------2p0------0------0-------------4-------
    3)------------------------------------------0-------------3----
    2)------------------------------------------------------------0-
    1)---------------------------------------------------------------
  • โคตรคำ
    Guest
  • 27 ก.พ.2549,13:44น.
    ใช้ power chord    เช่น   chord    [Bm]

    3I---------------4-//----------------7----//------------------//---------------------
    4I[Bm]--------4-//--[D]---------7----//--[F#]------4---//--[G]--------5------
    5I--------2--------//-----------5--------//---------------4--//---------------5------
    6I-----------------//---------------------//----------2-------//----------3----------

    เเต่วเลาท่อนกลางเปลี่ยน[F#]
    3I--------11-----//-----------------2I--------------6---
    4I--------11-----//---หรือ---------3I--------------6---
    5I---9------------//-----------------4I--------4---------
  • ทัชกีต้าร์ ROCK
    Guest
  • 2 เม.ย.2549,13:57น.
    1-----------------------------------------------------------------------------------------
    2----------------------------14-----------------------------14-------------------------
    3----------12--12--12-------------12----12----12---------------------------------
    4-----------------------------------------------------------------------------------------
    5-----------------------------------------------------------------------------------------
    6-----------------------------------------------------------------------------------------

    ท่อนSOLO เปิดวาว วาว กูทำได้แค่นี้
  • ตั้ม monkey monk
    Guest
  • 8 เม.ย.2549,00:32น.
    1-----------------------------------------------------------
    2-----------------------------------------------------------
    3-----------------------------------------0----------------
    4------4--0--2*0----------5/4--4--3------------------
    5---2---------------4/5--5------------------------------
    6----------------------------------------------------------

    *=ปล่อยเฟสที่เรากด /=ไสล์สาย
    ลองดูคับ เราเล่นแบบนี้
  • Kurt
    Guest
  • 7 ต.ค.2550,09:40น.


    1--------------------------------------------------------------------
    2--------------------------------------------------------------------
    3--------------------------------------------------------------------
    4-------------------------------------------------------------------
    5-----------------------------------------------------------------
    6----------------------------------------------------------------------
1

ขอเชิญร่วมแสดงความคิดเห็นครับ

คลิกที่รูป เพื่อแทรกรูปลงในข้อความ
  • Member :
    username
    password
  • Not a member :
    name
    email