Loading

คอร์ดเพลง ปากดี

โปเตโต้ (Potato)

อัพโหลดคลิปเพลงนี้ที่คุณ ร้อง/เล่น ด้วยตัวคุณเอง ได้แล้ววันนี้
ระหว่างการทดสอบระบบหากพบข้อผิดพลาด กรุณาแจ้งที่นี่
จากวันนี้เธอจะไม่เห็นหน้าคนอย่างฉันอีก โปรดจำเอาไว้
และตรงนี้จะไม่มีคนที่ยอมให้เธอ... ทำร้ายหัวใจกัน
บอกเธอเกือบจะพันครั้งแต่มันก็ทำไม่ได้
เรื่องตัดใจทำเท่าไรไม่ได้สักที

ไม่รู้ทำไมเวลาเธอไปร่างกายไม่มีเรี่ยวแรง
บอกเลิกทีไรสุดท้ายก็เป็นฉันเองที่เสียใจ
ปากดีเหลือเกินนะเราแค่ทิ้งคนที่ทำร้าย
กลั้นใจทิ้งเธอไม่ลงสักที

เจ็บและช้ำ จนมาวันนี้ที่ภายในหัวใจแหลกไม่มีเหลือ
หากวันไหนบอกอะไรเธอและทำได้จริง มาถึงก็คงดี

บอกเธอเกือบจะพันครั้งแต่มันก็ทำไม่ได้
เรื่องตัดใจทำเท่าไรไม่ได้สักที

ไม่รู้ทำไมเวลาเธอไปร่างกายไม่มีเรี่ยวแรง
บอกเลิกทีไรสุดท้ายก็เป็นฉันเองที่เสียใจ
ปากดีเหลือเกินนะเราแค่ทิ้งคนที่ทำร้าย
กลั้นใจทิ้งเธอไม่ลงสักที

ไม่รู้ทำไมเวลาเธอไปร่างกายไม่มีเรี่ยวแรง
บอกเลิกทีไรสุดท้ายก็เป็นฉันเองที่เสียใจ
ปากดีเหลือเกินนะเราแค่ทิ้งคนที่ทำร้าย
กลั้นใจทิ้งเธอไม่ลงสักที

กลั้นใจทิ้งเธอไม่ลงสักที...
ดาวน์โหลด Full Song
กด *424243041746584
กด *424243041746584
ดาวน์โหลด Truetone
กด *424218041746584
กด *424218041746584
กด *424218041746584
ดาวน์โหลด Poly
กด *424214041746584
กด *424214041746584
กด *424214041746584
ดาวน์โหลด Mono
กด *424211041746584
กด *424211041746584
กด *424211041746584
* อัตราค่าบริการดาวน์โหลด Fullsong, Truetone, Poly, Mono : 35 บาท/เพลง
ส่งเพลงนี้ให้เพื่อน
วันที่โพสต์ : 28 ก.ค.2548,21:49น. 203.118.83.193
จำนวนผู้ชม : 485575 คน / แสดงความคิดเห็น : 234 ครั้ง
โพสต์โดย


จาก: +#*55
เข้าร่วม: 9 ปีก่อน
เพลง: 0
โพสต์: 2
เพลงแนะนำ
เพลงฮิต
เลือกแสดงเฉพาะ :

  • 3 ส.ค.2548,02:51น.
    ปากดี 
    
    ศิลปิน : โปเตโต้ (Potato)

    intro Asus4/Dsus4/Bm7/E 2time

    Asus4 Dsus4 Bm7 E F#m Bm7 E
    จากวันนี้ เธอจะไม่เห็นหน้าคนอย่างฉันอีก โปรดจำเอาไว้

    Asus4 Dsus4 Bm7 E F#m Bm7 E
    และตรงนี้ จะไม่มีคนที่ยอมให้เธอ... ทำร้ายหัวใจกัน

    Dsus4 C#m7
    บอกเธอเกือบจะพันครั้งแต่มันก็ทำไม่ได้

    Bm7 D Bm E
    เรื่องตัดใจทำเท่าไรไม่ได้สักที

    A C#m Bm E
    ไม่รู้ทำไมเวลาเธอไปร่างกายไม่มีเรี่ยวแรง

    A C#m Bm E
    บอกเลิกทีไรสุดท้ายก็เป็นฉันเองที่เสียใจ

    F#m D
    ปากดีเหลือเกินนะเราแค่ทิ้งคนที่ทำร้าย

    Bm E Asus4/Dsus4/Bm7/E
    กลั้นใจทิ้งเธอไม่ลงสักที

    Asus4 Dsus4 Bm7 E F#m Bm7 E
    เจ็บและช้ำ จนมาวันนี้ที่ภายในหัวใจแหลกไม่มีเหลือ

    Asus4 Dsus4 Bm7 E F#m Bm7 E
    หากวันไหนบอกอะไรเธอและทำได้จริง มาถึงก็คงดี

    Dsus4 C#m7
    บอกเธอเกือบจะพันครั้งแต่มันก็ทำไม่ได้

    Bm7 D Bm E
    เรื่องตัดใจทำเท่าไรไม่ได้สักที

    A C#m Bm E
    ไม่รู้ทำไมเวลาเธอไปร่างกายไม่มีเรี่ยวแรง

    A C#m Bm E
    บอกเลิกทีไรสุดท้ายก็เป็นฉันเองที่เสียใจ

    F#m D
    ปากดีเหลือเกินนะเราแค่ทิ้งคนที่ทำร้าย

    Bm E Asus4/Dsus4/Bm7/E
    กลั้นใจทิ้งเธอไม่ลงสักที

    Solo Asus4/Dsus4/Bm7/E/F#m/Bm/ D/C#m/Bm/E/D/E

    A C#m Bm E
    ไม่รู้ทำไมเวลาเธอไปร่างกายไม่มีเรี่ยวแรง

    A C#m Bm E
    บอกเลิกทีไรสุดท้ายก็เป็นฉันเองที่เสียใจ

    F#m D
    ปากดีเหลือเกินนะเราแค่ทิ้งคนที่ทำร้าย

    Bm E Asus4/Dsus4
    กลั้นใจทิ้งเธอไม่ลงสักที

    Bm E Asus4/Dsus4/Bm7/E 2time Asus4
    กลั้นใจทิ้งเธอไม่ลงสักที...

    ไม่เนียน เปงไกด์ให้เฉย ๆ ง่วงด้วย

  • 3 ส.ค.2548,02:51น.
    ปากดี 
    ศิลปิน : โปเตโต้ (Potato)

    intro Asus4/Dsus4/Bm7/E 2time

    Asus4 Dsus4 Bm7 E F#m Bm7 E
    จากวันนี้ เธอจะไม่เห็นหน้าคนอย่างฉันอีก โปรดจำเอาไว้

    Asus4 Dsus4 Bm7 E F#m Bm7 E
    และตรงนี้ จะไม่มีคนที่ยอมให้เธอ... ทำร้ายหัวใจกัน

    Dsus4 C#m7
    บอกเธอเกือบจะพันครั้งแต่มันก็ทำไม่ได้

    Bm7 D Bm E
    เรื่องตัดใจทำเท่าไรไม่ได้สักที

    A C#m Bm E
    ไม่รู้ทำไมเวลาเธอไปร่างกายไม่มีเรี่ยวแรง

    A C#m Bm E
    บอกเลิกทีไรสุดท้ายก็เป็นฉันเองที่เสียใจ

    F#m D
    ปากดีเหลือเกินนะเราแค่ทิ้งคนที่ทำร้าย

    Bm E Asus4/Dsus4/Bm7/E
    กลั้นใจทิ้งเธอไม่ลงสักที

    Asus4 Dsus4 Bm7 E F#m Bm7 E
    เจ็บและช้ำ จนมาวันนี้ที่ภายในหัวใจแหลกไม่มีเหลือ

    Asus4 Dsus4 Bm7 E F#m Bm7 E
    หากวันไหนบอกอะไรเธอและทำได้จริง มาถึงก็คงดี

    Dsus4 C#m7
    บอกเธอเกือบจะพันครั้งแต่มันก็ทำไม่ได้

    Bm7 D Bm E
    เรื่องตัดใจทำเท่าไรไม่ได้สักที

    A C#m Bm E
    ไม่รู้ทำไมเวลาเธอไปร่างกายไม่มีเรี่ยวแรง

    A C#m Bm E
    บอกเลิกทีไรสุดท้ายก็เป็นฉันเองที่เสียใจ

    F#m D
    ปากดีเหลือเกินนะเราแค่ทิ้งคนที่ทำร้าย

    Bm E Asus4/Dsus4/Bm7/E
    กลั้นใจทิ้งเธอไม่ลงสักที

    Solo Asus4/Dsus4/Bm7/E/F#m/Bm/ D/C#m/Bm/E/D/E

    A C#m Bm E
    ไม่รู้ทำไมเวลาเธอไปร่างกายไม่มีเรี่ยวแรง

    A C#m Bm E
    บอกเลิกทีไรสุดท้ายก็เป็นฉันเองที่เสียใจ

    F#m D
    ปากดีเหลือเกินนะเราแค่ทิ้งคนที่ทำร้าย

    Bm E Asus4/Dsus4
    กลั้นใจทิ้งเธอไม่ลงสักที

    Bm E Asus4/Dsus4/Bm7/E 2time Asus4
    กลั้นใจทิ้งเธอไม่ลงสักที...

    ไม่เนียน เปงไกด์ให้เฉย ๆ ง่วงด้วย

  • คนผ่านทาง
    Guest
  • 20 ส.ค.2548,10:32น.
    ผมให้เปลี่ยนสำหรับคนที่เล่นคีต่ำตั้งแต่ D# ลงมานะคับเปลี่ยน 
    Asus4 เป็น Asus2 แล้วก็ Dsus4 เป็นDsus2
    ส่วนท่อน
    F#m F#mmaj7 F#m7 F#m6
    ปากดีเหลือเกินนะเราแค่ทิ้งคนที่ทำร้าย
    และท่อนอื่นๆเล่นตามคอร์ดอะคับ
    แล้วตัด 7ออกจาก C#M Bm เพราะคอร์ดสร้างลดเสียงลง แต่ท่อนปากดีใช้ได้กับทุกคี
    ส่วนใครจะแกะโซโลให้เล่นเป็น sus4 นะคับ
  • คนผ่านทาง
    Guest
  • 20 ส.ค.2548,10:47น.
    แล้วก็Introนะคับเปลี่ยนใหม่เป็น Asus2\E7sus4\A\Bm\E
  • คนผ่านทาง
    Guest
  • 20 ส.ค.2548,10:51น.
    โทดดูนิ้วผิดมันต้องเปง Asus2/Asus4/A/Bm/E  :เดี้ยวเยงๆหรือไม่ก็พุ่งนี้เดี้ยวผมเอา
    soloมาลงนะคับไปทามงานก่อนบาย
  • 21 ส.ค.2548,10:40น.
    ปากดี 
    ศิลปิน : โปเตโต้ (Potato)
    intro Asus2 Asus4 / Bm7 E 2time
    Asus2 Asus4 Bm7 E F#m Bm7 E
    จากวันนี้ เธอจะไม่เห็นหน้าคนอย่างฉันอีก โปรดจำเอาไว้
    Asus2 Asus4 Bm7 E F#m Bm7 E
    และตรงนี้ จะไม่มีคนที่ยอมให้เธอ... ทำร้ายหัวใจกัน
    Dsus4 C#m7
    * บอกเธอเกือบจะพันครั้งแต่มันก็ทำไม่ได้
    Bm7 D E
    เรื่องตัดใจทำเท่าไรไม่ได้สักที
    A C#m Bm E
    ** ไม่รู้ทำไมเวลาเธอไปร่างกายไม่มีเรี่ยวแรง
    A C#m Bm E
    บอกเลิกทีไรสุดท้ายก็เป็นฉันเองที่เสียใจ
    F#m D
    ปากดีเหลือเกินนะเราแค่ทิ้งคนที่ทำร้าย
    Bm E
    กลั้นใจทิ้งเธอไม่ลงสักที
    Intru: Asus2 Asus4 / Bm7 E
    Asus2 Asus4 Bm7 E F#m Bm7 E
    เจ็บและช้ำ จนมาวันนี้ที่ภายในหัวใจแหลกไม่มีเหลือ
    Asus2 Asus4 Bm7 E F#m Bm7 E
    หากวันไหนบอกอะไรเธอและทำได้จริง มาถึงก็คงดี
    ( */** )
    Solo Asus2/Asus4/Bm7/E/A/C#m/Bm/E
    ( ** )
    Bm E Asus2 Asus4 / Bm7 E 2time Asus4
    กลั้นใจทิ้งเธอไม่ลงสักที...
  • 23 ส.ค.2548,20:34น.
        A               C#m            Bm              E  
    ไม่รู้ทำไมเวลาเธอไปร่างกายไม่มีเรี่ยวแรง
    A C#m Bm E
    บอกเลิกทีไรสุดท้ายก็เป็นฉันเองที่เสียใจ
    F#m/F#mM7/F#m7/F#m6 D
    ปากดีเหลือเกินนะเราแค่ทิ้งคนที่ทำร้าย
    Bm E
    กลั้นใจทิ้งเธอไม่ลงสักที

    อย่างงี้น่าจะ ฟังได้มากว่าอ่ะ
  • 3 ก.ย.2548,20:21น.
    เพลง ปากดี ท่อนโซโล ไม่ค่อย ชัวว์ เท่าไหร่ แต่พอไปได้
    ฝากให้เพื่อนครับ พู่ โพสแล้วนะเว้ย
    b(( Absolute มือกีต้าร์ แห่ง เบญจมราชาลัย


    E----------------------------------------------------------------------------------------------------------------------------
    B----------------------9/10--9-9--10--9--10----------------------------------------------------------------10------------
    G---9--11-9---------------------------------------------9---11---9--------------------------------------------------------
    D----------------------------------------------------------------------------------------7/9--7-7---------------------------
    A----------------------------------------------------------------------------------------------------------------------------
    E-----------------------------------------------------------------------------------------------------------------------------

    E-----------------------------------------------------------------10------------------10------10---10---10--------------------
    B-------------10--10......--------9.......---------7--9--10---10---------7--7-----7-------10---10---10---9--9-----------
    G----9--------9---9.......--------6........---------6--8---9----9----------6--6-----6-------9-----9----9-----8--8-----------
    D---------------------------------------------------------------------------------------------------------------------------
    A---------------------------------------------------------------------------------------------------------------------------
    E---------------------------------------------------------------------------------------------------------------------------

    ปล. ไอ ........ คือดีด ตามทำนองมันอ่ะครับ ขี้เกียจพิมพ์

    ลิขสิทธิ์ ถูกต้องตามกฏหมายห้ามใดเปลี่ยนแปลง ล้อเล่นๆๆๆๆ
  • bung
    Guest
  • 4 ก.ย.2548,21:58น.
    ปากดี 
    ศิลปิน : โปเตโต้ (Potato)
    intro Asus2 Dmaj7 / Bm7 E 2time
    Asus2 Dmaj7 Bm7 E F#m Bm7 E
    จากวันนี้ เธอจะไม่เห็นหน้าคนอย่างฉันอีก โปรดจำเอาไว้
    Asus2 Dmaj7 Bm7 E F#m Bm7 E
    และตรงนี้ จะไม่มีคนที่ยอมให้เธอ... ทำร้ายหัวใจกัน
    Dsus4 C#m7
    * บอกเธอเกือบจะพันครั้งแต่มันก็ทำไม่ได้
    Bm7 D E
    เรื่องตัดใจทำเท่าไรไม่ได้สักที
    A C#m Bm E
    ** ไม่รู้ทำไมเวลาเธอไปร่างกายไม่มีเรี่ยวแรง
    A C#m Bm E
    บอกเลิกทีไรสุดท้ายก็เป็นฉันเองที่เสียใจ
    F#m F#mM7/F#m7 D
    ปากดีเหลือเกินนะเราแค่ทิ้งคนที่ทำร้าย
    Bm E
    กลั้นใจทิ้งเธอไม่ลงสักที
    Intru: Asus2 Asus4 / Bm7 E
    Asus2 Asus4 Bm7 E F#m Bm7 E
    เจ็บและช้ำ จนมาวันนี้ที่ภายในหัวใจแหลกไม่มีเหลือ
    Asus2 Asus4 Bm7 E F#m Bm7 E
    หากวันไหนบอกอะไรเธอและทำได้จริง มาถึงก็คงดี
    ( */** )
    Solo Asus2/Asus4/Bm7/E/A/C#m/Bm/E
    ( ** )
    Bm E Asus2 Asus4 / Bm7 E 2time Asus4
    กลั้นใจทิ้งเธอไม่ลงสักที...

  • The Tik
    Guest
  • 6 ก.ย.2548,20:54น.
    ปากดี 

    ศิลปิน : โปเตโต้ (Potato)

    intro Asus2 Dsus2 / Bm7 E 2time

    Asus2 Dsus2 F#M7 E F#dim7 Bm7 E

    จากวันนี้ เธอจะไม่เห็นหน้าคนอย่างฉันอีก โปรดจำเอาไว้

    Asus2 Dsus2 F#m7 E F#dim7 Bm7 E

    และตรงนี้ จะไม่มีคนที่ยอมให้เธอ... ทำร้ายหัวใจกัน

    Dmaj7 C#m7

    * บอกเธอเกือบจะพันครั้งแต่มันก็ทำไม่ได้

    Bm7 Esus4 D E

    เรื่องตัดใจทำเท่าไรไม่ได้สักที

    A C#m Bm E

    ** ไม่รู้ทำไมเวลาเธอไปร่างกายไม่มีเรี่ยวแรง

    A C#m Bm E

    บอกเลิกทีไรสุดท้ายก็เป็นฉันเองที่เสียใจ

    F#m F#mM7/F#m7 Dsus2

    ปากดีเหลือเกินนะเราแค่ทิ้งคนที่ทำร้าย

    Bm E

    กลั้นใจทิ้งเธอไม่ลงสักที

    Intru: Asus2 Dsus2 / Bm7 E

    Asus2 Dsus2 F#m7 E F#dim7 Bm7 E

    เจ็บและช้ำ จนมาวันนี้ที่ภายในหัวใจแหลกไม่มีเหลือ

    Asus2 Dsus2 Bm7 E F#dim7 Bm7 E

    หากวันไหนบอกอะไรเธอและทำได้จริง มาถึงก็คงดี

    ( */** )

    Solo Asus2/Dmaj7/Bm7/E/A/C#m/Bm/E

    ( ** )

    Bm E Asus2 Dsus2 / Bm7 E 2time Asus2

    กลั้นใจทิ้งเธอไม่ลงสักที...


    ลองดูครับผมว่าดีกว่านะ
  • 25 ก.ย.2548,21:36น.
    Solo  Asus2/Asus4/Bm7/E/A/C#m/Bm/E

    บางทีผมเล่นตรงที่มันจาขึ้น ฮา.....................ผมใช้ D/C#m/Bm/E
    น่าจะเหมือนกว่า
  • b@((
    Guest
  • 3 ต.ค.2548,05:12น.
    1   ------------------7-------------------------------------2----------2-------------4----------------2
    2 -----4----5----------------7------------------4---------------3----------3---------------4-------
    3 -1------------6------3--------4-------4---------6-----------------------------------------------0
    4 -------------------------------------------------------7-------------9-------------9---------------
    5 ------------------------------------------------------------------------------------------------------
    6 ----------------------------------------------------------------------------------------------------0-
    ปล.ไม่แน่ไจนะแต่ดูจากหนังสือ tap solo ชัวร์ครับ solo ปากดี ฝึกกันปาย
  • เทค
    Guest
  • 3 ต.ค.2548,05:18น.
    ปากดี 
    ศิลปิน : โปเตโต้ (Potato)
    intro Asus2 Asus4 / Bm7 Cm 2time
    Asus2 Asus4 Bm7 C F#m Bm7 C
    จากวันนี้ เธอจะไม่เห็นหน้าคนอย่างฉันอีก โปรดจำเอาไว้
    Asus2 Asus4 Bm7 C F#m Bm7 C
    และตรงนี้ จะไม่มีคนที่ยอมให้เธอ... ทำร้ายหัวใจกัน
    Dsus4 C#m7
    * บอกเธอเกือบจะพันครั้งแต่มันก็ทำไม่ได้
    Bm7 D Cdud2
    เรื่องตัดใจทำเท่าไรไม่ได้สักที
    Adud3 C#m Bm C
    ** ไม่รู้ทำไมเวลาเธอไปร่างกายไม่มีเรี่ยวแรง
    A7 C#m7 Bm7 C7
    บอกเลิกทีไรสุดท้ายก็เป็นฉันเองที่เสียใจ
    F#m M
    ปากดีเหลือเกินนะเราแค่ทิ้งคนที่ทำร้าย
    Bm7 C
    กลั้นใจทิ้งเธอไม่ลงสักที
    Intru: Asus2 Asus4 / Bm7 M
    Asus7 Asus4 Bm7 C F#m Bm7 E
    เจ็บและช้ำ จนมาวันนี้ที่ภายในหัวใจแหลกไม่มีเหลือ
    Asus2 Asus4 Bm7 C F#m Bm7 Mm7
    หากวันไหนบอกอะไรเธอและทำได้จริง มาถึงก็คงดี
    ( */** )
    Solo Asus7/Asus4/Bm7/Esus4/Asus3/C#m/Bm/E
    ( ** )
    Bm Cm7 Asus2 Asus4 / Bm7 C7 2time Asus4
    กลั้นใจทิ้งเธอไม่ลงสักที...



    ของแท้แน่นอน ครับอะอุส่าแอบจดมาจากหนังืสอเพลง คอร์ดชัวร์ ลองเล่นกันดูนี่เนียนสุดแล้ว เพราะของแท้ - - ลองฝึกกันดูถ้าจับคอร์ดไหนไม่เป้นก้อบอกมา เพราะมันมีบางคอร์ดที่พึ่งบรรจุลงในสมาคมการดนตรีมาไหม่
  • คนเก่า
    Guest
  • 13 ต.ค.2548,18:04น.
    ปากดี 
    ศิลปิน : โปเตโต้ (Potato)
    intro Asus2 Asus4 / Bm7 Cm 2time
    Asus2 Asus4 Bm7 C F#m Bm7 C
    จากวันนี้ เธอจะไม่เห็นหน้าคนอย่างฉันอีก โปรดจำเอาไว้
    Asus2 Asus4 Bm7 C F#m Bm7 C
    และตรงนี้ จะไม่มีคนที่ยอมให้เธอ... ทำร้ายหัวใจกัน
    Dsus4 C#m7
    * บอกเธอเกือบจะพันครั้งแต่มันก็ทำไม่ได้
    Bm7 D Cdud2
    เรื่องตัดใจทำเท่าไรไม่ได้สักที
    Adud3 C#m Bm C
    ** ไม่รู้ทำไมเวลาเธอไปร่างกายไม่มีเรี่ยวแรง
    A7 C#m7 Bm7 C7
    บอกเลิกทีไรสุดท้ายก็เป็นฉันเองที่เสียใจ
    F#m M
    ปากดีเหลือเกินนะเราแค่ทิ้งคนที่ทำร้าย
    Bm7 C
    กลั้นใจทิ้งเธอไม่ลงสักที
    Intru: Asus2 Asus4 / Bm7 M
    Asus7 Asus4 Bm7 C F#m Bm7 E
    เจ็บและช้ำ จนมาวันนี้ที่ภายในหัวใจแหลกไม่มีเหลือ
    Asus2 Asus4 Bm7 C F#m Bm7 Mm7
    หากวันไหนบอกอะไรเธอและทำได้จริง มาถึงก็คงดี
    ( */** )
    Solo Asus7/Asus4/Bm7/Esus4/Asus3/C#m/Bm/E
    ( ** )
    Bm Cm7 Asus2 Asus4 / Bm7 C7 2time Asus4
    กลั้นใจทิ้งเธอไม่ลงสักที...
    ของแท้กว่า...
  • Lunatic Surfer
    Guest
  • 19 ต.ค.2548,22:07น.
    2---------11/12-----11----11---12/11-12
    3 11-13-----------------------------------------11--11/13-11
    4--------------------------------------------------------------------13---11--11

    งง หน่อยอะนะ เพิ่งเขียนครั้งแรก แต่ก็คล้ายๆ
  • Gmemo(sorn)
    Guest
  • 20 ต.ค.2548,17:08น.
    solo1
    E--------------------------------------------------------------------------------------------------------------B----------------------9/10--9-9--10--9--10----------------------------------------------------------------10------------
    G---5--7--5---------------------------------------------9---11---9--------------------------------------------------------
    D----------------------------------------------------------------------------------------7/9--7-7---------------------------
    A----------------------------------------------------------------------------------------------------------------------------
    E-----------------------------------------------------------------------------------------------------------------------------
    เล่นpower/Bm/Cm/

    E---------------------------------10---------------------12.....
    B-4....--6....--8....--10....--10-----10----10/12
    G-----------------------------------------------------------------
    D-----------------------------------------------------------------
    A-2....--4....--6....--8.....---------------------------------------
    E---------------------------------------------------------12.......

    solo2
    E--/15--15--15--14--14--12--12------
    B----------------------------------------------

    E--/15--15--15--14--14-----------------
    B----------------------------------------------
  • Gmemo(sorn)
    Guest
  • 20 ต.ค.2548,17:09น.
    solo1
    E--------------------------------------------------------------------------------------------------------------
    B----------------------9/10--9-9--10--9--10----------------------------------------------------------------10------------
    G---5--7--5---------------------------------------------9---11---9--------------------------------------------------------
    D----------------------------------------------------------------------------------------7/9--7-7---------------------------
    A----------------------------------------------------------------------------------------------------------------------------
    E-----------------------------------------------------------------------------------------------------------------------------
    เล่นpower/Bm/Cm/

    E---------------------------------10---------------------12.....
    B-4....--6....--8....--10....--10-----10----10/12
    G-----------------------------------------------------------------
    D-----------------------------------------------------------------
    A-2....--4....--6....--8.....---------------------------------------
    E---------------------------------------------------------12.......

    solo2
    E--/15--15--15--14--14--12--12------
    B----------------------------------------------

    E--/15--15--15--14--14-----------------
    B----------------------------------------------
  • Gmemo(sorn)
    Guest
  • 20 ต.ค.2548,17:09น.
    solo1
    E--------------------------------------------------------------------------------------------------------------
    B----------------------9/10--9-9--10--9--10----------------------------------------------------------------10------------
    G---5--7--5---------------------------------------------9---11---9--------------------------------------------------------
    D----------------------------------------------------------------------------------------7/9--7-7---------------------------
    A----------------------------------------------------------------------------------------------------------------------------
    E-----------------------------------------------------------------------------------------------------------------------------
    เล่นpower/Bm/Cm/

    E---------------------------------10---------------------12.....
    B-4....--6....--8....--10....--10-----10----10/12
    G-----------------------------------------------------------------
    D-----------------------------------------------------------------
    A-2....--4....--6....--8.....---------------------------------------
    E---------------------------------------------------------12.......

    solo2
    E--/15--15--15--14--14--12--12------
    B----------------------------------------------

    E--/15--15--15--14--14-----------------
    B----------------------------------------------
  • 20 ต.ค.2548,21:20น.
    เพลง : ปากดี
    ศิลปิน : โปเตโต้

    Intro : Asus2 Dmaj9 / Bm7 E (2 times)

    Asus2 Dmaj9 Bm7 E F#m Bm7 E
    จาก...วันนี้ เธอจะไม่เห็นหน้าคนอย่างฉันอีก โปรดจำเอาไว้

    Asus2 Dmaj9 Bm7 E F#m Bm7 E
    และ...ตรงนี้ จะไม่มีคนที่ยอมให้เธอ... ทำร้ายหัวใจกัน

    Dmaj7 C#m7
    * บอกเธอเกือบจะพันครั้งแต่มันก็ทำไม่ได้

    Bm7 E D E
    เรื่องตัดใจ... ทำเท่าไรไม่ได้ซักที

    A C#m Bm E
    ** ไม่รู้ทำไมเวลาเธอไปร่างกายไม่มีเรี่ยวแรง

    A C#m Bm E
    บอกเลิกทีไรสุดท้ายก็เป็นฉันเองที่เสียใจ

    F#m F#mM7 F#m7 D
    ปากดีเหลือเกินนะเราแค่ทิ้งคนที่ทำร้าย...

    Bm E Asus2 Dmaj9 / Bm7 E
    กลั้นใจ...ทิ้งเธอไม่ลงเสียที

    Asus2 Dmaj9 Bm7 E F#m Bm7 E
    เจ็บ...และช้ำ จนมาวันนี้ที่ภายในหัวใจ แหลกไม่มีเหลือ

    Asus2 Dmaj9 Bm7 E F#m Bm7 E
    หาก...วันไหน บอกอะไรเธอและทำได้จริง มาถึงก็คงดี

    ( * , **)
    Solo : Asus2 Dmaj9 / Bm7 E / F#m / Bm7 E / A / C#m / Bm / E D E

    A C#m Bm E
    ไม่รู้ทำไมเวลาเธอไปร่างกายไม่มีเรี่ยวแรง

    A C#m Bm E
    บอกเลิกทีไรสุดท้ายก็เป็นฉันเองที่เสียใจ

    F#m F#mM7 F#m7 D
    ปากดีเหลือเกินนะเราแค่ทิ้งคนที่ทำร้าย...

    Bm E Asus2 / Dmaj9
    กลั้นใจ...ทิ้งเธอไม่ลงเสียที

    Bm E Asus2 Dmaj9 / Bm7 E ( 2 times) / Asus2
    กลั้นใจ... ทิ้งเธอไม่ลงเสียที...

    เพิ่งหัดเล่นกีตาร์ครับ เอาคอร์ดไปก่อน แล้วเดี๋ยวจะไปแกะโซโล่มาให้
    ค่อนข้างแน่ใจนะ?
  • Chester
    Guest
  • 23 ต.ค.2548,12:06น.
     ลองเล่นอันนี้ดูคร้าบน่าจะเหมือนนะ
    E---------------------------------------------------------------------------
    B--------7-----------10----9-----9-----10---9-----10---5----7-----5
    G---6--------6------------------------------------------------------------


    E----------------------------------
    B----------------------------------
    G--4-----2-----2----------------
  • chester
    Guest
  • 23 ต.ค.2548,12:14น.
    E------17--17--17---16---16--------------------19-19-19--17--17
    B--------------------------------------17----17---------------------------
  • schecter c-1elite
    Guest
  • 1 พ.ย.2548,18:13น.
    solo:ปากดี
    E---------------------------------------------------------------------------------
    B-----7------/10-9-9-10-9---10---\5--/7--\5------------------------------
    G--6----6----------------------------------------------------------2--/4--\2--
    D---------------------------------------------------------------------------------
    A----------------------------------------------------------------------------------
    E---------------------------------------------------------------------------------
    แล้วก็เล่นคอร์ด C#m B#m
    E-------------------------------------------
    B-------------------------------------------
    G------------------------------------------
    D------11/----12/-----13------------------
    A--------------------------------------------
    E------9/-----10/-----11------------------
    จำได้แค่นี้คับ เอาไปลองดุ ถ้าผิดก็ถือว่าขำๆละกัน
  • BeCooL
    Guest
  • 5 พ.ย.2548,01:38น.
    ผมว่าของคุณ คห.123 ใกล้เคียงสุด (ท่อนแรก)
    ขอยกมาอีกที

    solo:ปากดี
    E---------------------------------------------------------------------------------
    B-----7------/10-9-9-10-9---10---\5--/7--\5------------------------------
    G--6----6----------------------------------------------------------2--/4--\2--
    D---------------------------------------------------------------------------------
    A----------------------------------------------------------------------------------
    E---------------------------------------------------------------------------------

    หลังจากนั้น ยอมรับว่าฟังไม่ค่อยออก แกะอยู่นานมาก ได้แบบนี้ครับ

    D Dadd9 C#m
    E------------------------------------------------9-9-...-----
    B------------------------------------------------9-9-...-----
    G----------7-7-7----9-9-9-9-...-------------9-9-...-----
    D----------7-7-7----7-7-7-7-...-------------6-6-...-----
    A-----5h--5-5-5----5-5-5-5-...-------------------------
    E--5h-------------------------------------------------------

    ตัว h คือดีดแบบฮาร์โมนิก
    ... ดีดตามจังหวะไปเรื่อยๆ
    E
    E------------------------------------------------------------
    B------------------------------------------------------------
    G-----11----13-----14----16----18----------9--------
    D-------------------------------------------------9---------
    A------9-----11-----12----14----16---------7---------
    E------------------------------------------------------------

    ท่อนนี้เล่นคู่แปดไล่ตามสเกลเฉยๆ ไม่มีไร

    ลองดูๆๆๆ เป็นไงเม้นด้วยนะ
  • เพทาย จุต้น
    Guest
  • 22 พ.ย.2548,11:07น.
    เพิ่มเติมจากคอร์ดMนะครับคอร์ดMที่เห็นคือ"maj"ซึ่งก็คือคอร์ดเมเจอร์แล้วที่เห็นก็คือF#mmaj7(เอฟ ชาป เมเจอร์ เซเว่น)แค่นี้แหละถ้าผมมั่วบอกด้วยละกานขอบคุณ 
  • แจ็คกี้แมน
    Guest
  • 17 ม.ค.2549,14:24น.
    solo  คร้าบ  


    1--------------7----------------------9-------------------------------
    2----2s--5----------------5/7--------------------------------------
    3-------------------------------------------2/4----4/6--------------
    4-----------------------------------------------------------------------
    5-----------------------------------------------------------------------
    6----------------------------------------------------------------------


    น่าจะชัวนะ
  • แบงค์ วิทยาลัยเทคนิคระยอง อิเล็ก
    Guest
  • 6 เม.ย.2549,11:25น.
    นี่นี่ มานต้องแบบนี้ตะหาก 
    1 ----------4/5----4-4-5-4--5------------------------------
    2 ----7-------------------------------5--7--5-----3/5---5/3-3
    3 -- 6-- 6-------------------------------------------------------
    4 --------------------------------------------------------------

    แล้วก้อเล่น พาวเวอร์ d5/b5 แล้วก้อ ตามด้วยแทบที่พวกคุนๆเขียนมานั่นแหละ
  • Neelวงกระท้อน
    Guest
  • 11 ต.ค.2549,18:28น.
    lntro:/Asus2  Dmaj7/Bm  E/( 2 times )

    Asus2 Dmaj7 F#m E B Bm E
    จากวันนี้ เธอจะไม่เห็นหน้าคนอย่างฉันอีก โปรดจำเอาไว้
    Asus2 Dmaj7 F#m E B Bm E
    และตรงนี้ จะไม่มีคนที่ยอมให้เธอ... ทำร้ายหัวใจกัน

    Dmaj7
    * บอกเธอเกือบจะพันครั้ง
    C#m F#m
    แต่มันก็ทำไม่ได้
    Bm E D E
    เรื่องตัดใจทำเท่าไรไม่ได้สักที

    A C#m Bm E
    ** ไม่รู้ทำไม เวลาจะไป ร่างกายไม่มีเรี่ยวแรง
    A C#m Bm E
    บอกเลิกทีไร สุดท้ายก็เป็นฉันเอง ที่เสียใจ
    F#m F#mmaj7 F#m7 D
    ปากดีเหลือเกินนะเรา แค่ทิ้งคนที่ทำร้าย
    Bm E Asus2
    กลั้นใจ ทิ้งเธอไม่ลงสักที

    Solo:/Asus2 Dmaj7/Bm E/

    Asus2 Dmaj7 F#m E B D E
    เจ็บและช้ำ จนมาวันนี้ที่ภายในหัวใจ แหลกไม่มีเหลือ
    Asus2 Dmaj7 F#m E B D E
    หากวันไหน บอกอะไรเธอและทำได้จริง มาถึงก็คงดี

    ( * , ** )

    Solo:/Asus2 Dmaj7/F#m E/B/D E/
    /D/C#m/Bm/E D E/

    ( ** )

    Solo:/F#m/Dsus2/

    Bm E Asus2
    กลั้นใจ ทิ้งเธอไม่ลงสักที

    Solo:/Asus2 Dmaj7/Bm E/( 2 Times )/Asus2/

    คอร์ดน่าจะชัวร์ครับ

  • Guitarist La salle chote
    Guest
  • 23 พ.ย.2549,14:43น.
    ถูกต้องมันต้องใช้ Ddim 
    ส่วน Intro Asus2/ Dmaj7 ( สาย1เปล่า ดีดจากสาย1ขึ้นมาก่อน ) Bm ( Power Chord ) / E
    ลูกเล่นระหว่างท่อนแรก
    e//------------------------------11p10-----11p10
    B//-----------7---------10--------------11------------11-----11p10-------11p10
    G//----4/6-----6/9-------------------------------------------------------10------------10

    B//-----------------------------------------10\2
    G//----4/6----11------4\2------9


    solo

    B//-----------7-----7/10--9--9--10p9--10\5--5/7--5
    G//----4/6-----6--------------------------------------------------2/4\2---2


    soloท่อนสุดท้าย

    e//-------13/15--15--15---14--14---------------15/17---17--17--15--15
    B//-----------------------------------------15--15
  • Guitarist By DEBSIRIN
    Guest
  • 7 ธ.ค.2549,17:39น.
    ผมว่าอินโทรน่าจะเป็นอย่างนี้นะ 

    intro : Asus2/Dmaj7/Dmaj9/Bm/Esus4/E (2 times)

    ชัวร์ที่สุดแล้วคับ แน่นอนถ้าผิดมาเตะเลย

    outro : Asus2/Dmaj7/Dmaj9/Bm/Esus4/E (2 times) Asus2

    แน่นอน
  • 585
    Guest
  • 10 มี.ค.2550,19:28น.

    พวกเมิงแกะ TAP เพลงเชี่ยไรวะ นี้ของจริงอยู่นี้โว้ยไม่พวกอ่อน 555+

    3)--------------7-9---9^---9s12^s11^--s7----------------
    4)------5-7-9------7------------------------------9s13s9----

    3)--7-----------5---7----s9--9--7--7--9--11-11
    4)--------7^9---------7

    3) 9-9---7-7---------9-9---7-7----9--7------------s10
    4)----------------------------------------------9----7

    เป็นไงจะร้องหละซิ นี้มืออาชีพนะ 55+
  • Zee-star
    Guest
  • 13 มิ.ย.2550,17:59น.

    what'FaeN? 5555+ Tab vil har venner Faen
    ((ขอคอร์ดกีต้าร์))

ขอเชิญร่วมแสดงความคิดเห็นครับ

คลิกที่รูป เพื่อแทรกรูปลงในข้อความ
  • Member :
    username
    password
  • Not a member :
    name
    email