Loading

คอร์ดเพลง ผิดไหม

ฟาเรนไฮต์ (Fahrenheit)

อัพโหลดคลิปเพลงนี้ที่คุณ ร้อง/เล่น ด้วยตัวคุณเอง ได้แล้ววันนี้
ระหว่างการทดสอบระบบหากพบข้อผิดพลาด กรุณาแจ้งที่นี่
ผิดไหม ที่ไม่ไปพบเธอ ไม่ต้องการพบเจอ ไม่ต้องการเจอะหน้าใคร 
ผิดไหม ที่ไม่ยอมเข้าใจ ไม่อยากฟังเรื่องราวที่เธออยากอธิบาย
ผิดเรอะ ที่เป็นคนรักจริง ที่เป็นคนฝังใจ รักแล้วยากจะลบเลือน
ผิดเรอะ ที่อ่อนแอเหลือเกิน เกินจะยอมรับรู้การลาจาก รับรู้ว่าเธออยากจากฉันไป

*ปล่อยฉันไว้คนเดียว ฉันยังจะทนไหว ฝันได้ตามใจ มีเธอ ได้แสนนาน
ให้ฉันเจอความจริง ฉันทนไม่ไหว จะให้ฉันทำใจยังไง ทั้งหัวใจมันรัก รักเธอ

ผิดไหม ที่ไม่เข้มแข็งพอ พอที่จะเสียเธอ เสียให้คนอื่นเขาไป
ผิดไหม ที่ทำใจไม่ได้ ไม่อยากทนเป็นเธอต้องลาจาก รักเธอจนลำบากใจเหลือเกิน(*)

ให้ฉันเจอความจริง ฉันทนไม่ไหว จะให้ฉันทำใจยังไง ทั้งหัวใจมันรัก รักเธอ
จะให้ฉันทนได้ยังไง ทั้งหัวใจมีไว้...รักเธอ

ดาวน์โหลด Full Song
กด *424243053206584
กด *424243053206584
ดาวน์โหลด Truetone
กด *424218053206584
กด *424218053206584
กด *424218053206584
* อัตราค่าบริการดาวน์โหลด Fullsong, Truetone, Poly, Mono : 35 บาท/เพลง
ส่งเพลงนี้ให้เพื่อน
วันที่โพสต์ : 19 ก.พ.2548,21:18น.
จำนวนผู้ชม : 162156 คน / แสดงความคิดเห็น : 58 ครั้ง
โพสต์โดย


จาก: @G_i_f_t@
Guest
เพลงแนะนำ
เพลงฮิต
เลือกแสดงเฉพาะ :

  • Spider man
    Guest
  • 14 มี.ค.2548,23:07น.
    Intro: D/G/D/A7  A7sus4(2time) D
    

    D F#m Em A7
    ผิดไหม ที่ไม่ไปพบเธอ ไม่ต้องการพบเจอ ไม่ต้องการเจอะหน้าใคร

    F#m B7sus4 / B7 Em A7sus4/A7
    ผิดไหม ที่ไม่ยอมเข้าใจ ไม่อยากฟังเรื่องราว ที่เธออยากอธิบาย

    D F#m Em A7
    ผิดเรอะ ที่เป็นคนรักจริง ที่เป็นคนฝังใจ รักแล้วยากจะลบเลือน

    F#m B7 Em D
    ผิดเรอะ ที่อ่อนแอเหลือเกิน เกินจะยอมรับรู้การลาจาก รับรู้ว่าเธออยากจากฉันไป

    G Bm Em D
    *ปล่อยฉันไว้คนเดียว ฉันยังจะทนไหว ฝันได้ตามใจ มีเธอ ได้แสนนาน

    Bm F#7 G Em G A D
    ให้ฉันเจอความจริง ฉันทนไม่ไหว จะให้ฉันทำใจยังไง ทั้งหัวใจมันรัก รักเธอ


    Instru D/G/D/A7sus4
    D F#m Em A7
    ผิดไหม ที่ไม่เข้มแข็งพอ พอที่จะเสียเธอ เสียให้คนอื่นเขาไป

    F#m B7 Em D
    ผิดไหม ที่ทำใจไม่ได้ ไม่อยากทนเป็นเธอต้องลาจาก รักเธอจนลำบากใจเหลือเกิน
    (*)
    Instru D/A/Bm/Em//A7sus4/D
    Bm F#7 G Em D
    ให้ฉันเจอความจริง ฉันทนไม่ไหว จะให้ฉันทำใจยังไง ทั้งหัวใจมันรัก รักเธอ
    G A7sus4 D
    จะให้ฉันทนได้ยังไง ทั้งหัวใจมีไว้...รักเธอ
    Instru D/G/D/A7 (2time) D
  • Spider man
    Guest
  • 14 มี.ค.2548,23:07น.
    Intro: D/G/D/A7  A7sus4(2time) D

    D F#m Em A7
    ผิดไหม ที่ไม่ไปพบเธอ ไม่ต้องการพบเจอ ไม่ต้องการเจอะหน้าใคร

    F#m B7sus4 / B7 Em A7sus4/A7
    ผิดไหม ที่ไม่ยอมเข้าใจ ไม่อยากฟังเรื่องราว ที่เธออยากอธิบาย

    D F#m Em A7
    ผิดเรอะ ที่เป็นคนรักจริง ที่เป็นคนฝังใจ รักแล้วยากจะลบเลือน

    F#m B7 Em D
    ผิดเรอะ ที่อ่อนแอเหลือเกิน เกินจะยอมรับรู้การลาจาก รับรู้ว่าเธออยากจากฉันไป

    G Bm Em D
    *ปล่อยฉันไว้คนเดียว ฉันยังจะทนไหว ฝันได้ตามใจ มีเธอ ได้แสนนาน

    Bm F#7 G Em G A D
    ให้ฉันเจอความจริง ฉันทนไม่ไหว จะให้ฉันทำใจยังไง ทั้งหัวใจมันรัก รักเธอ


    Instru D/G/D/A7sus4
    D F#m Em A7
    ผิดไหม ที่ไม่เข้มแข็งพอ พอที่จะเสียเธอ เสียให้คนอื่นเขาไป

    F#m B7 Em D
    ผิดไหม ที่ทำใจไม่ได้ ไม่อยากทนเป็นเธอต้องลาจาก รักเธอจนลำบากใจเหลือเกิน
    (*)
    Instru D/A/Bm/Em//A7sus4/D
    Bm F#7 G Em D
    ให้ฉันเจอความจริง ฉันทนไม่ไหว จะให้ฉันทำใจยังไง ทั้งหัวใจมันรัก รักเธอ
    G A7sus4 D
    จะให้ฉันทนได้ยังไง ทั้งหัวใจมีไว้...รักเธอ
    Instru D/G/D/A7 (2time) D
  • Pe
    Guest
  • 14 มี.ค.2548,23:16น.
                          G                         Bm              Em               A         D                       
    *ปล่อยฉันไว้คนเดียว ฉันยังจะทนไหว ฝันได้ตามใจ มีเธอ ได้แสนนาน

    Bm F#7 G Em G A D
    ให้ฉันเจอความจริง ฉันทนไม่ไหว จะให้ฉันทำใจยังไง ทั้งหัวใจมันรัก รักเธอ

    แล้ว Aหายไปไหนครับ
  • Necroman_kunG
    Guest
  • 20 มี.ค.2548,11:34น.
    Intro: /D G/D A/(2 times)

    D F#m Em A
    ผิดไหม ที่ไม่ไปพบเธอ ไม่ต้องการพบเจอ ไม่ต้องการเจอะหน้าใคร

    F#m B7sus4 Em A
    ผิดไหม ที่ไม่ยอมเข้าใจ ไม่อยากฟังเรื่องราว ที่เธออยากอธิบาย

    D F#m Em A
    ผิดเรอะ ที่เป็นคนรักจริง ที่เป็นคนฝังใจ รักแล้วยากจะลบเลือน

    F#m B7sus4 Em A D
    ผิดเรอะ ที่อ่อนแอเหลือเกิน เกินจะยอมรับรู้การลาจาก รับรู้ว่าเธออยากจากฉันไป

    Gmaj7 Bm Em A D
    *ปล่อยฉันไว้คนเดียว ฉันยังจะทนไหว ฝันได้ตามใจ มีเธอ ได้แสนนาน

    Bm F# G Em G A D
    ให้ฉันเจอความจริง ฉันทนไม่ไหว จะให้ฉันทำใจยังไง ทั้งหัวใจมันรัก... รักเธอ


    Instru:/D G/D A/
    D F#m Em A
    ผิดไหม ที่ไม่เข้มแข็งพอ พอที่จะเสียเธอ เสียให้คนอื่นเขาไป

    F#m B7sus4 Em A D
    ผิดไหม ที่ทำใจไม่ได้ ไม่อยากทนเป็นเธอต้องลาจาก รักเธอจนลำบากใจเหลือเกิน

    ( * )

    Instru:/D A/Bm/Em A/D/

    Bm F# Gmaj7 Em F#m G A D B
    ให้ฉันเจอความจริง ฉันทนไม่ไหว จะให้ฉันทำใจยังไง ทั้งหัวใจมันรัก รักเธอ
    Em F#m G A D
    จะให้ฉันทนได้ยังไง ทั้งหัวใจมีไว้...รักเธอ
    Instru:/D G/(4 times)/D/

    ถูกชัวร์~~ คับผม
  • Nattanun
    Guest
  • 27 มี.ค.2550,15:55น.

    Intro :
    E>----------------|--------------------|-----------5---------|-----------|
    B>----------------|--------------------|-2-3----------3----|-2-3--/5-|
    G>---คีย์บอร์ดนำ|2ห้อง-----------2-|---------------------|------------|
    D>----------------|--------------------|----------------------|-----------|
    A>----------------|--------------------|----------------------|-----------|
    E>----------------|--------------------|----------------------|-----------|

    Solo :
    ทั้ง หัวใจมันรัก รักเธอ
    D A Bm
    E>|----------------------|-------------------------------------------|---------------------
    B>|----------------------|-------------------------------------------|---------------------
    G>|----------------------|-----/7--7--/9--11--12\11-9--7-9-|-/11--------------
    D>|------------------/7-|-7----------------------------------------|-------9-9---------
    A>|----------------------|-------------------------------------------|---------------------
    E>|----------------------|-------------------------------------------|---------------------
    Em7 D
    1/2 P.H.
    E>---------------17-/19-|-19-------14-17-/19-19----21^(21)-19-17-14-15-|-/17-----17-
    B>------12-15-----------|------15-------------------------------------------------------|----------------
    G>-------------------------|----------------------------------------------------------------|----------------
    D>-------------------------|----------------------------------------------------------------|----------------
    A>--------------------------|---------------------------------------------------------------|----------------
    E>--------------------------|---------------------------------------------------------------|----------------

    Meaning Of Tab Symbol
    / (Slide) = ดีดแล้วรูดนิ้วจากเฟร็ตน้อยกว่าไปหาเฟร็ตที่อยู่หลังเครื่องหมายนี้
    ^ (Bend & Release) = ดีดแล้วดันสายให้เสียงสูงขึ้นแล้วผ่อนลง(ในเพลงนี้ดันให้สูงขึ้นเพียงครึ่งเสียง)
    P.H.(Pinch Harmonic) = ทำฮาร์โมนิก โดยใช้ข้างนิ่วโป้งสัมผัสเบาๆหลังจากดีดปิ๊กไปแล้ว
    ทักษะนี้ค่อนข้างยากครับ ต้องอาศัยการฝึกฝนบ่อยๆ (ขออธิบายอีกรอบ *ลองนึกภาพตามนะครับ เวลาเราจับปิ๊กดีด นิ้วโป้งจะขนานกับสายนะครับ แล้วพอเราดีดลงไปให้ข้างๆนิ้วโป้งสัมผัสกับสาย นะครับ
    จะเกิดเสียงฮาร์โมนิก เสียงมันหวีดแหลมๆนะครับ แล้วตอนที่นิ้วโป้งสัมผัสก็อย่าเอานิ้วไปอุดสายค้างไว้นะ มันก็คงไม่เกิดเสียงอะไรเลย พอนิ้วโป้งสัมผัสแล้วก็เอานิ้วออกเลยอย่างต่อเนื่อง คือ ตั้งแต่เอาปิ๊กดีดลงไปนิ้วจะไม่มีการหยุดค้างที่สายเลย คงพอทำความเข้าใจกันได้นะครับ) ที่เหลือก็อยู่ที่การฝึกฝนแล้วครับ ตอนแรกๆอาจจะดีดแล้วไม่เกิดเสียง แต่พอฝึกไปนานๆเดี๋ยวก็จะเกิดเสียงเองครับ
1

ขอเชิญร่วมแสดงความคิดเห็นครับ

คลิกที่รูป เพื่อแทรกรูปลงในข้อความ
  • Member :
    username
    password
  • Not a member :
    name
    email