Loading

คอร์ดเพลง .ผ่าน.

.Slotmachine.

อัพโหลดคลิปเพลงนี้ที่คุณ ร้อง/เล่น ด้วยตัวคุณเอง ได้แล้ววันนี้
ระหว่างการทดสอบระบบหากพบข้อผิดพลาด กรุณาแจ้งที่นี่
ผ่าน 
ศิลปิน : Slotmachine
ผ่าน Slot Machine

ไม่ว่าเจอสิ่งใด เนิ่นนานไปก็แปรเปลี่ยน สักวัน
เคยวิ่งตามความฝัน แต่บางครั้งก็ต้องหยุด แค่นั้น
เมื่อก่อนเคยรัก เคยผูกพัน แต่มาวันนี้มันเป็นเพียง คนเคยได้รู้จักกัน
วันนี้มีสุขใจ แต่ต่อไปสักวันคง วุ่นวาย
หากความทุกข์ทนจางหาย อาจมองเห็นความสุข อีกครั้ง

*จึงทำให้ฉัน ได้เข้า(มั่น)ใจ ทุกสิ่งเปลี่ยนผันสักเท่าไร
ฉันจะก้าวเดินต่อไป
**อย่าลืมเรื่องราวที่ผ่านที่เคยได้เจ็บช้ำ
ยังมีเรื่องราวที่ดีที่เคยได้จดจำ
เก็บคืนและวันที่ผ่านที่เคยได้ปวดร้าว
ยังมีเรื่องราวที่ดีที่รอให้จดจำ

วันที่ทำผิดไป อาจเจอใครที่เข้าใจ สักคน
ในความมืดมนสับสน อาจเจอคนที่จริงใจ ไม่ยากนัก

ซ้ำ *

ในความมืดมิดยังมีดวงดาว
และแดดยามเช้าพาให้เราก้าวไป

ซ้ำ **


ส่งเพลงนี้ให้เพื่อน
วันที่โพสต์ : 23 ก.ย.2549,19:48น. 125.25.55.191
จำนวนผู้ชม : 116857 คน / แสดงความคิดเห็น : 117 ครั้ง
โพสต์โดย


จาก: karito
เข้าร่วม: 8 ปีก่อน
เพลง: 0
โพสต์: 7
เพลงแนะนำ
เพลงฮิต
เลือกแสดงเฉพาะ :

  • BassZa. โยดาสิงห์
    Guest
  • 26 ก.ย.2549,23:41น.
    .ผ่าน.
    ศิลปิน :.Slotmachine..ผ่าน. Slot Machine

    intro Am/D

    Am D
    ไม่ว่าเจอสิ่งใด เนิ่นนานไปก็แปรเปลี่ยน สักวัน
    Am D
    เคยวิ่งตามความฝัน แต่บางครั้งก็ต้องหยุด แค่นั้น
    F#m Bm
    เมื่อก่อนเคยรัก เคยผูกพัน แต่มาวันนี้มันเป็นเพียง คนเคยได้รู้จักกัน
    Am D
    วันนี้มีสุขใจ แต่ต่อไปสักวันคง วุ่นวาย
    Am D
    หากความทุกข์ทนจางหาย อาจมองเห็นความสุข อีกครั้ง

    F#m Bm
    *จึงทำให้ฉัน ได้เข้า(มั่น)ใจ ทุกสิ่งเปลี่ยนผันสักเท่าไร
    ฉันจะก้าวเดินต่อไป
    Am
    **อย่าลืมเรื่องราวที.ผ่าน.ี่เคยได้เจ็บช้ำ
    D
    ยังมีเรื่องราวที่ดีที่เคยได้จดจำ
    Am
    เก็บคืนและวันที.ผ่าน.ี่เคยได้ปวดร้าว
    D
    ยังมีเรื่องราวที่ดีที่รอให้จดจำ

    Am/D

    Am D
    วันที่ทำผิดไป อาจเจอใครที่เข้าใจ สักคน
    Am D
    ในความมืดมนสับสน อาจเจอคนที่จริงใจ ไม่ยากนัก

    ซ้ำ *

    Bm G
    ในความมืดมิดยังมีดวงดาว

    และแดดยามเช้าพาให้เราก้าวไป

    solo:Am/D/D/?/?/E

    ซ้ำ **

    ไม่รู้ถูกป่าวผมเล่นเบสแกะตามเบสอะ
  • BassZa. โยดาสิงห์
    Guest
  • 26 ก.ย.2549,23:41น.
    .ผ่าน.
    ศิลปิน :.Slotmachine..ผ่าน. Slot Machine

    intro Am/D

    Am D
    ไม่ว่าเจอสิ่งใด เนิ่นนานไปก็แปรเปลี่ยน สักวัน
    Am D
    เคยวิ่งตามความฝัน แต่บางครั้งก็ต้องหยุด แค่นั้น
    F#m Bm
    เมื่อก่อนเคยรัก เคยผูกพัน แต่มาวันนี้มันเป็นเพียง คนเคยได้รู้จักกัน
    Am D
    วันนี้มีสุขใจ แต่ต่อไปสักวันคง วุ่นวาย
    Am D
    หากความทุกข์ทนจางหาย อาจมองเห็นความสุข อีกครั้ง

    F#m Bm
    *จึงทำให้ฉัน ได้เข้า(มั่น)ใจ ทุกสิ่งเปลี่ยนผันสักเท่าไร
    ฉันจะก้าวเดินต่อไป
    Am
    **อย่าลืมเรื่องราวที.ผ่าน.ี่เคยได้เจ็บช้ำ
    D
    ยังมีเรื่องราวที่ดีที่เคยได้จดจำ
    Am
    เก็บคืนและวันที.ผ่าน.ี่เคยได้ปวดร้าว
    D
    ยังมีเรื่องราวที่ดีที่รอให้จดจำ

    Am/D

    Am D
    วันที่ทำผิดไป อาจเจอใครที่เข้าใจ สักคน
    Am D
    ในความมืดมนสับสน อาจเจอคนที่จริงใจ ไม่ยากนัก

    ซ้ำ *

    Bm G
    ในความมืดมิดยังมีดวงดาว

    และแดดยามเช้าพาให้เราก้าวไป

    solo:Am/D/D/?/?/E

    ซ้ำ **

    ไม่รู้ถูกป่าวผมเล่นเบสแกะตามเบสอะ
  • เจฟ
    Guest
  • 27 ก.ย.2549,19:09น.
    ผมไปดูคอนเสริต เพลง.ผ่าน.ผ่านผมเห็นเขาเล่นน่ะช่วงอินโทร น่าจะเปนพวกคอร์ด C#m กับ Bm น่ะถ้าจำไม่ผิด แต่น่าจะใช่   
  • พี่เงาะ
    Guest
  • 20 ต.ค.2549,06:02น.
    คอร์ดเพลงนี้เป็นคอร์ด A  แน่นอน  เพราะเพลงนี้เป็นคีย์  A  ถ้าเป็น Am อย่างที่ลุงว่ามันก็จะเพี้ยนไป
    ( เรื่องนี้เป็นทฤฤษฎีดนตรีเลยนะ ) แต่อินโทรทำไมมันแกะอยากเย็นก็ไม่รู้
  • [otto]
    Guest
  • 27 พ.ย.2549,11:31น.
    กะบอกและไงว่า เบสเล่นเดิมๆ มะมีลุกพิสะดานไรหลอก   ADพิ่มเอากะเพราะดีเหมือนกันลองดู  
  • คนไม่เก่ง
    Guest
  • 9 ธ.ค.2549,20:17น.
    ท่อนหลังคำว่า  
    "วันที่ทำผิดไปอาจเจอใครที่เข้าซักคน" กะ "ในความมืดมนสับสนอาจเจอใครที่จิงใจไม่ยากนัก"


    1------------------------------------------------------------------------
    2-----------11h12--11---------------------11h12--11--12-------
    3---------------------------13------------------------------------------
    4-----12---------------------------------12----------------------------

    แกะครั้งแรกนะครับ ถ้าผิดก้อย่าด่ากันนะครับ
    ขอบคุณครับ
  • SLM
    Guest
  • 19 ธ.ค.2549,19:33น.
    intro 
    1.-----------------------------------------------------------------------------------------------------------
    2.--------------------5-5-5-5-------3-3--------5-5-5---/----5-5-5-5--------3-3-------5-5-5-
    3.--------------------6-6-6-6-------4-4--------6-6-6--/-----6-6-6-6--------4-4-------6-6-6-

    1.--------------------------------------------------------------------------------------------------------
    2.--------9-9-9-9-----10-10-----9-9-9------10----10----10----10------12--12-------14---14
    3.--------9-9-9-9------9---9------9-9-9------11----11----11----11------13--13-------14------
    ซ้ำอีกรอบ
    1.-----------------------------------------------------------14------14-----------------------------------
    2.------10----10-----10-----10------12---12---------14
    3.------11----11-----11-----11------13---13---------------------------------------------------------
    ((ขอคอร์ดกีต้าร์))
  • maoemo
    Guest
  • 28 ม.ค.2550,13:05น.

    intro
    จังหวะดีดยังไงก็ไปฟังเองนะครับ ขี้เกียจพิมพ์55
    4>--2------l------2--2-2--l
    3>--2--2--l--2--2--2-2--l l---l x 2
    2>--2--5--l--5--3--2-2--l
    1>------5--l--5------------l

    3>---9---9---9-9-------9--9----9---<9>
    2>--10--9---7-7------10--9----9--<9> <Bend ~~>
    1>---------------------------------10-<10>

    solo

    3>-----7---7---7--7------9----9----9----9--------11----11----11----11
    2>--7---7---7---7-----9----9----9----9-------10----10----10----10---

    ตัวแรกดีดเน้นๆให้ลงจังหวะ
    1 2 3 4
    v v v v
    4>-------------14------------14----------14----------14
    3>--------13------------13-----------13----------13
    2>---12------------12------------12----------12

    3>------------13-------------13------------13-----------13--
    2>---15p12-------15p12--------5p12------15p12------

    ความจริงแล้วดีดได้หลายแบบเลยแต่งเอาเองก็ได้ถ้าคิดว่าเล่นแล้วมันอ่ะ


    solo อีกแบบ

    3>-----7-7-----7-7-----7-7-----7-7------9-9----9-9----9-9----9-9----
    2>--7-------7--------7-------7----- 9------9------9------- 9-------
    ตัวบนรัวไปเลยคับลูกพี่ แล้วแต่ความไวมือ และ ก็ ฟิล


    ส่วนตอน Intro ผมว่าผมแกะไม่ค่อยเหมือนนะ แต่ฟังแล้วมันก็โอเคอ่ะ

    เราไม่จำเปนต้องเล่นเหมือนในเทปเสมอไป แต่งได้ แต่งไปเลย สร้างสรรดี

    เด๋วผมจะเอาท่อน Intro อีกแบบที่รุ่นพี่เค้าเล่นมาบอก
    (ที่จริงพี่สอนมาแต่ผมลืมแระ)


  • networkclub
    Guest
  • 29 ม.ค.2550,17:40น.
    .ผ่าน.: Slot Machine

    intro A/D (2 time)

    A D
    ไม่ว่าเจอสิ่งใด เนิ่นนานไปก็แปรเปลี่ยน สักวัน
    A D
    เคยวิ่งตามความฝัน แต่บางครั้งก็ต้องหยุด แค่นั้น
    F#m Bm
    เมื่อก่อนเคยรัก เคยผูกพัน แต่มาวันนี้มันเป็นเพียง คนเคยได้รู้จักกัน
    A D
    วันนี้มีสุขใจ แต่ต่อไปสักวันคง วุ่นวาย
    A D
    หากความทุกข์ทนจางหาย อาจมองเห็นความสุข อีกครั้ง

    F#m Bm
    *จึงทำให้ฉัน ได้เข้า(มั่น)ใจ ทุกสิ่งเปลี่ยนผันสักเท่าไร
    ฉันจะก้าวเดินต่อไป
    A
    **อย่าลืมเรื่องราวที.ผ่าน.ี่เคยได้เจ็บช้ำ
    D
    ยังมีเรื่องราวที่ดีที่เคยได้จดจำ
    A
    เ ก็บคืนและวันที.ผ่าน.ี่เคยได้ปวดร้าว
    D
    ยังมีเรื่องราวที่ดีที่รอให้จดจำ A/D

    A D
    วันที่ทำผิดไป อาจเจอใครที่เข้าใจ สักคน
    A D
    ในความมืดมนสับสน อาจเจอคนที่จริงใจ ไม่ยากนัก

    (ซ้ำ *)

    Bm C#m
    ในความมืดมิดยังมีดวงดาว
    A/D
    และแดดยามเช้าพาให้เราก้าวไป

    solo : Bm/C#m/Dm/Dm

    (ซ้ำ **)

    ourtro : A/D (2 time) A
1

ขอเชิญร่วมแสดงความคิดเห็นครับ

คลิกที่รูป เพื่อแทรกรูปลงในข้อความ
  • Member :
    username
    password
  • Not a member :
    name
    email