Loading

คอร์ดเพลง ฝนตกที่หน้าต่าง

โลโซ

อัพโหลดคลิปเพลงนี้ที่คุณ ร้อง/เล่น ด้วยตัวคุณเอง ได้แล้ววันนี้
ระหว่างการทดสอบระบบหากพบข้อผิดพลาด กรุณาแจ้งที่นี่
Intro: F#/Ebm/G#m/C# (2times)

F# Ebm/G#m/C#
วันนี้ฝนตก ไหลลงที่หน้าต่าง
F# Ebm G#m C#
เธอคิดถึงฉันบ้าง ไหมหนอเธอ
F# Ebm G#m C# B C#
เมื่อวันจันทร์ที่แล้ว สองเรายังได้เจอ เธอ ส่งยิ้มมา

F# Ebm/G#m C#
นั่งอยู่คนเดียว เหลียวมองที่หน้าต่าง
F# Ebm G#m C#
หากมีเธอข้าง ๆ ก็คงจะสุขใจ
F# Ebm G#m C#
เธอคงไม่รู้ ว่าฉันเองยังไม่มีใคร
B C# F#
หากเป็นเธอ ก็คงเข้าที

B Bbm G#m C# F#
* เธออาจจะมีใคร คนนั้นที่แสนดี ส่วนฉันคนนี้ ก็คงจะเศร้าใจ
B Bbm Ebm G#m B C#
เธออาจจะมีแฟนแล้ว ก็เป็นได้ ก็ยังสงสัย ยังอยากจะรู้

F# Ebm G#m F# Ebm G#m C#
** หวังแค่เพียงเธอ มีใจให้ซักหน่อย เฝ้าแต่รอคอย เพียงเธอบอกรักมา
F# Ebm G#m C# B C# F#/Ebm/G#m/C#
สุขใจยิ่งนัก ที่ฉันได้เพียง แค่มองตากับเธอ ก็สุขสุดหัวใจ


Solo: F#/Ebm/G#m/C# (3times)
B/C#/F#

[ ซ้ำ * , ** ]

G#m C# F#/Ebm/G#m/C#
อือ ... ก็สุขสุดหัวใจ โอ๊ะ...เย...
F#/Ebm/G#m/C#/F#/Ebm/G#m/C#
จึด.......
F#/Ebm/G#m/C#/F#/Ebm/G#m/C#
จึด.......
[ 'till fade ]
ดาวน์โหลด Full Song
กด *424243131486584
กด *424243131486584
ดาวน์โหลด Truetone
กด *424218131486584
กด *424218131486584
กด *424218131486584
ดาวน์โหลด Poly
กด *424214131486584
กด *424214131486584
กด *424214131486584
ดาวน์โหลด Mono
กด *424211131486584
กด *424211131486584
กด *424211131486584
* อัตราค่าบริการดาวน์โหลด Fullsong, Truetone, Poly, Mono : 35 บาท/เพลง
ส่งเพลงนี้ให้เพื่อน
วันที่โพสต์ : 30 มี.ค.2547,12:17น.
จำนวนผู้ชม : 492275 คน / แสดงความคิดเห็น : 144 ครั้ง
โพสต์โดย


จาก: คนหล่อ
Guest
เพลงแนะนำ
เพลงฮิต
เลือกแสดงเฉพาะ :

  • bos
    Guest
  • 11 มิ.ย.2547,17:46น.
    good............................ 
    ((อัพเดทคอร์ดกีต้าร์))
  • .
    Guest
  • 15 ม.ค.2548,18:23น.
    1)-------------------------------------------------------------
    2)-12------12--------------------------------------------
    3)---12-14--12-14-11-12--12-11-11-12-16-14-14-14----
    4)---------------------------------------14------------------------
    5)------------------------------------------------------------
    6)---------------------------------------------------------------

    1)-------------------------------------------------------------
    2)-12-----------12--------------------------------------------
    3)---14-12-14--12-14-11-12--12-11-11-12-16-14-16-14----
    4)-------------------------------------------14------------------------
    5)------------------------------------------------------------
    6)---------------------------------------------------------------

    1)
    2)-15-13-12-13-15--12-13-12---------------------------------------------------------15
    3)-------------------------------14----14-12-11-12-14-16-14-12-----12-12-14-16-14-12
    4)------------------------------------------------------------------------12-14
    5)
    6)

    1)
    2)
    3)-12-14-12------12
    4)------------14-12
    5)
    6)
  • .
    Guest
  • 15 ม.ค.2548,18:23น.
    1)-------------------------------------------------------------
    2)-12------12--------------------------------------------
    3)---12-14--12-14-11-12--12-11-11-12-16-14-14-14----
    4)---------------------------------------14------------------------
    5)------------------------------------------------------------
    6)---------------------------------------------------------------

    1)-------------------------------------------------------------
    2)-12-----------12--------------------------------------------
    3)---14-12-14--12-14-11-12--12-11-11-12-16-14-16-14----
    4)-------------------------------------------14------------------------
    5)------------------------------------------------------------
    6)---------------------------------------------------------------

    1)
    2)-15-13-12-13-15--12-13-12---------------------------------------------------------15
    3)-------------------------------14----14-12-11-12-14-16-14-12-----12-12-14-16-14-12
    4)------------------------------------------------------------------------12-14
    5)
    6)

    1)
    2)
    3)-12-14-12------12
    4)------------14-12
    5)
    6)
  • เด็กอีเทค
    Guest
  • 5 เม.ย.2549,10:34น.
    พี่เสกสอนผมกับมือ โซโลเอาไว้ก่อนนะ

    Intro: G Em Am D (2times)
    G Em Am D G
    วันนี้ฝนตก ไหลลงสู่หน้าต่าง
    Em Am D
    เธอคิดถึงฉันบ้าง ไหมหนอเธอ
    G Em Am D C
    เมื่อวันจันทร์ที่แล้ว สองเรายังได้เจอ
    Dsus4
    เธอส่งยิ้มมา
    G Em Am D G
    นั่งอยู่คนเดียว เหลียวมองที่หน้าต่าง
    Em Am D
    หากมีเธอข้างๆ ก็คงจะสุขใจ
    G Em Am D
    เธอคงไม่รู้ ว่าฉันเองยังไม่มีใคร
    C D G (Am Bm)
    หากเป็นเธอ ก็คงเข้าที
    C Bm
    * เธออาจจะมีใคร คนนั้นที่แสนดี
    Am D G (Am Bm)
    ส่วนฉันคนนี้ ก็คงจะเศร้าใจ
    C Bm Em
    เธออาจจะมีแฟนแล้วก็เป็นได้
    Am C Dsus4
    ก็ยังสงสัย ยังอยากจะรู้
    G Em Am D
    ** หวังแค่เพียงเธอ มีใจให้ซักหน่อย
    G Em Am D
    เฝ้าแต่รอคอย เพียงเธอบอกรักมา
    G Em Am D C
    สุขใจยิ่งนัก ที่ฉันได้เพียงแค่มองตากับเธอ
    D G Em Am D
    ก็สุขสุดหัวใจ โอะโอ

    Solo: G Em Am D (3times)
    C D G Am Gm

    (ซ้ำ *, **)
    D G Em Am D
    ก็สุขสุดหัวใจ โอะเย้

    Solo: G Em Am D (6times)
  • 784615
    Guest
  • 18 ก.ย.2549,22:34น.
      UGUYNY UGYJN   JUHYUGIOOI
  • เด็กฝึกหัด
    Guest
  • 18 ก.ย.2549,22:36น.
    Intro: G Em Am D (2times)
    G Em Am D G
    วันนี้ฝนตก ไหลลงสู่หน้าต่าง
    Em Am D
    เธอคิดถึงฉันบ้าง ไหมหนอเธอ
    G Em Am D C
    เมื่อวันจันทร์ที่แล้ว สองเรายังได้เจอ
    Dsus4
    เธอส่งยิ้มมา
    G Em Am D G
    นั่งอยู่คนเดียว เหลียวมองที่หน้าต่าง
    Em Am D
    หากมีเธอข้างๆ ก็คงจะสุขใจ
    G Em Am D
    เธอคงไม่รู้ ว่าฉันเองยังไม่มีใคร
    C D G (Am Bm)
    หากเป็นเธอ ก็คงเข้าที
    C Bm
    * เธออาจจะมีใคร คนนั้นที่แสนดี
    Am D G (Am Bm)
    ส่วนฉันคนนี้ ก็คงจะเศร้าใจ
    C Bm Em
    เธออาจจะมีแฟนแล้วก็เป็นได้
    Am C Dsus4
    ก็ยังสงสัย ยังอยากจะรู้
    G Em Am D
    ** หวังแค่เพียงเธอ มีใจให้ซักหน่อย
    G Em Am D
    เฝ้าแต่รอคอย เพียงเธอบอกรักมา
    G Em Am D C
    สุขใจยิ่งนัก ที่ฉันได้เพียงแค่มองตากับเธอ
    D G Em Am D
    ก็สุขสุดหัวใจ โอะโอ

    Solo: G Em Am D (3times)
    C D G Am Gm

    (ซ้ำ *, **)
    D G Em Am D
    ก็สุขสุดหัวใจ โอะเย้
  • musza
    Guest
  • 22 เม.ย.2550,20:31น.
    ง่ายมากเลยเพลงนี้
    เป็นเพลงที่ผมเล่นเพลงแรกเลย
    แค่เล่นวน G Em Am D แค่นี้เอง
    จะมี c มาบ้างอย่างที่คนที่ 26 ลงเอาไว้
    ถูกชัวว์
  • muuj
    Guest
  • 3 ก.ย.2550,09:30น.
    Intro: G Em Am D (2times)
    G Em Am D G
    วันนี้ฝนตก ไหลลงสู่หน้าต่าง
    Em Am D
    เธอคิดถึงฉันบ้าง ไหมหนอเธอ
    G Em Am D C
    เมื่อวันจันทร์ที่แล้ว สองเรายังได้เจอ
    Dsus4
    เธอส่งยิ้มมา
    G Em Am D G
    นั่งอยู่คนเดียว เหลียวมองที่หน้าต่าง
    Em Am D
    หากมีเธอข้างๆ ก็คงจะสุขใจ
    G Em Am D
    เธอคงไม่รู้ ว่าฉันเองยังไม่มีใคร
    C D G (Am Bm)
    หากเป็นเธอ ก็คงเข้าที
    C Bm
    * เธออาจจะมีใคร คนนั้นที่แสนดี
    Am D G (Am Bm)
    ส่วนฉันคนนี้ ก็คงจะเศร้าใจ
    C Bm Em
    เธออาจจะมีแฟนแล้วก็เป็นได้
    Am C Dsus4
    ก็ยังสงสัย ยังอยากจะรู้
    G Em Am D
    ** หวังแค่เพียงเธอ มีใจให้ซักหน่อย
    G Em Am D
    เฝ้าแต่รอคอย เพียงเธอบอกรักมา
    G Em Am D C
    สุขใจยิ่งนัก ที่ฉันได้เพียงแค่มองตากับเธอ
    D G Em Am D
    ก็สุขสุดหัวใจ โอะโอ

    Solo: G Em Am D (3times)
    C D G Am Gm

    (ซ้ำ *, **)
    D G Em Am D
    ก็สุขสุดหัวใจ โอะเย้

    Solo: G Em Am D (6times)

    ตามนี้นะครับ
    ****************ตอนนี้กำลังแกะ Solo ถ้าเสร็จสมบูรณ์แล้วจะรีบมาลงให้ครับ




    ต๊ะติ๊งโหน่ง 172.16.30.233 [ วันพุธ ที่ 8 กุมภาพันธ์ 2549 เวลา 13:01 น. ] [ x ] ผู้ตอบคนที่ 14
    อยากเล่นเบสได้อ่ะค่ะ สอนหน่อยนะ ได้ป่ะ มีพื้นฐานกีต้าร์ดี



    เด็กอีเทค 203.113.80.14 [ วันพุธ ที่ 5 เมษายน 2549 เวลา 10:34 น. ] [ x ] ผู้ตอบคนที่ 15
    พี่เสกสอนผมกับมือ โซโลเอาไว้ก่อนนะ

    Intro: G Em Am D (2times)
    G Em Am D G
    วันนี้ฝนตก ไหลลงสู่หน้าต่าง
    Em Am D
    เธอคิดถึงฉันบ้าง ไหมหนอเธอ
    G Em Am D C
    เมื่อวันจันทร์ที่แล้ว สองเรายังได้เจอ
    Dsus4
    เธอส่งยิ้มมา
    G Em Am D G
    นั่งอยู่คนเดียว เหลียวมองที่หน้าต่าง
    Em Am D
    หากมีเธอข้างๆ ก็คงจะสุขใจ
    G Em Am D
    เธอคงไม่รู้ ว่าฉันเองยังไม่มีใคร
    C D G (Am Bm)
    หากเป็นเธอ ก็คงเข้าที
    C Bm
    * เธออาจจะมีใคร คนนั้นที่แสนดี
    Am D G (Am Bm)
    ส่วนฉันคนนี้ ก็คงจะเศร้าใจ
    C Bm Em
    เธออาจจะมีแฟนแล้วก็เป็นได้
    Am C Dsus4
    ก็ยังสงสัย ยังอยากจะรู้
    G Em Am D
    ** หวังแค่เพียงเธอ มีใจให้ซักหน่อย
    G Em Am D
    เฝ้าแต่รอคอย เพียงเธอบอกรักมา
    G Em Am D C
    สุขใจยิ่งนัก ที่ฉันได้เพียงแค่มองตากับเธอ
    D G Em Am D
    ก็สุขสุดหัวใจ โอะโอ

    Solo: G Em Am D (3times)
    C D G Am Gm

    (ซ้ำ *, **)
    D G Em Am D
    ก็สุขสุดหัวใจ โอะเย้

    Solo: G Em Am D (6times)



  • ..
    Guest
  • 8 ก.ย.2550,22:24น.

    tap
    1-----------------------------------------------------------------------
    2---------7--
    ---------------8----------
  • m น ม ร . ส. ว.3
    Guest
  • 8 ต.ค.2550,21:07น.


    3/---------------------------------------------2---------------------------------------------------------2
    2/3---0h3----------------0---1---0h1f0-------------------3----0h3---------------0-1-0h1f0-------
    1/-------------1---1--1---------------------------2h3f2-------------------1--1--1---------------------2


    3/-----2
    2/3
    1/

    f=ยกสายนะ
  • เด็ด ค.ร.อ จ้า
    Guest
  • 24 ธ.ค.2550,17:09น.


    1/-------------------------------------------------------------------
    2/ - 10-8-12-8-10-7-8-8-7-7 7-10-12-10-10
    3/ --------------------------------9------------------------------
    4/-----------------------------------------------------------------
    5/------------------------------------------------------------
    6/----------------------------------------------------------------------

    1/
    2/ 12-10-8-10-12-8-10-8-7-8-8-7 7-8-10-12-10-12
    3/ -----------------------------------------9--------------------------
    4/----------------------------------------------------------------------
    5/-----------------------------------------------------------------
    6/---------------------------------------------------------------------

    1/-10-8-7-8-10-7-8-7 7 10
    2/-------------------------10-- 10-8-7-8-10-12-10-8 -8-10-12- -12-10-12-10
    3/------------------------------------------------------------7-9 -12
    4/
    5/
    6/

    ok แกะมากับมือ 100% จาก เด็ก ค.ร.อ นี้คือท่อนSoloครับ
1

ขอเชิญร่วมแสดงความคิดเห็นครับ

คลิกที่รูป เพื่อแทรกรูปลงในข้อความ
  • Member :
    username
    password
  • Not a member :
    name
    email