Loading

คอร์ดเพลง มุม

เพลย์กราวด์ (Playground)

อัพโหลดคลิปเพลงนี้ที่คุณ ร้อง/เล่น ด้วยตัวคุณเอง ได้แล้ววันนี้
ระหว่างการทดสอบระบบหากพบข้อผิดพลาด กรุณาแจ้งที่นี่
มุม  ..  playground

หากใครคนนึงมีคำถาม สักวันคุณอยากจะพบใคร คำตอบในใจคือใครที่คุณต้องการ จะขีดคำที่ดีพร้อม
ใครๆต่างพากันชอบเทอ จะเขียนคำตอบที่หอบหัวใจไปฝัน
* และฉันเปนคนที่ประทับใจเทอเช่นกัน และฉันก้อไม่กล้าที่จะพูดไป ได้แต่ยิ้มให้เทอเบาๆอยู่ในมุมที่เทอไม่สนใจ แอบมองดูเทอไกลๆอย่างนี้ต่อไป
** ได้แอบมองเทอข้างเดียวอยู่ที่มุมนี้ก้อพอแล้วไม่มีเงื่อนไขใดๆในความหวังดี แค่ได้ชอบเทออย่างตอนนี้ ก้อถือเปนโชคชะตาดีๆที่คนอย่างฉันได้เกิดมาพบกับเทอ
หากเราใกล้กันมากกว่านี้ สักวันมันอาจจะไม่ดี บางสิ่งในใจฉันอาจทำเทอลำบาก ก้อปล่อยเทอลอยอยู่ฟ้า ของมองดูเทอจากพื้นดิน แค่เพียงได้เห็นเทอฉันก้อสุขใขแล้ว (*,**)
และถ้าวันนึงเทอเหนื่อยล้าจากเรื่องต่างๆจนเทอรู้สึกว่าโลกนี้เหมือนกับไม่เหลือใคร โปรดจงรู้เอาไว้ว่าโลกนี้ยังมีความห่วงใยจากมุมเล็กๆตรงนี้เสมอ
(**)
ได้แอบมองเทอข้างเดียวอยู่ที่มุมนี้ก้อพอแล้วไม่มีเงื่อนไขใดๆในความหวังดี เอาเรื่องดีดีที่มีตอนนี้ ที่ทำให้รู้ว่าเทอคนนี้ได้มีความสุขแค่เพียงเท่านี้ฉันก้ออุ่นใจ
ส่งเพลงนี้ให้เพื่อน
วันที่โพสต์ : 25 ธ.ค.2547,17:47น.
จำนวนผู้ชม : 930242 คน / แสดงความคิดเห็น : 645 ครั้ง
โพสต์โดย


จาก: RosickyGreentea
Guest
เพลงแนะนำ
เพลงฮิต
เลือกแสดงเฉพาะ :

  • ็Hadder
    Guest
  • 28 ธ.ค.2547,21:20น.
    โคตรเพาะเลยว่ะ  เพลงนี้  ตรงกับตัวเองจริงๆ
    
    เพราะ เราแอบชอบผู้หญิงได้แต่แอบมองเธออยู่ตรงทางเดิน
    อาพับ....
    ((ขอคอร์ดกีต้าร์))
  • ็Hadder
    Guest
  • 28 ธ.ค.2547,21:20น.
    โคตรเพาะเลยว่ะ  เพลงนี้  ตรงกับตัวเองจริงๆ
    เพราะ เราแอบชอบผู้หญิงได้แต่แอบมองเธออยู่ตรงทางเดิน
    อาพับ....
    ((ขอคอร์ดกีต้าร์))
  • 168
    Guest
  • 29 ธ.ค.2547,16:40น.
    ขอคอร์ดกับแทปครับ

    ผมยังอ่อนหัดครับ ยังแกะม่ะได้

    ให้เซียนๆช่วยหน่อยครับ
    ((ขอคอร์ดกีต้าร์))
  • Hollow
    Guest
  • 29 ธ.ค.2547,17:34น.
    intro: A/D/Bm/E    2 times

    A D
    หากใครคนนึงมีคำถาม สักวันคุณอยากจะพบใคร คำตอบในใจคือใครที่คุณต้องการ
    A D
    จะขีดคำที่ดีพร้อม ใครๆต่างพากันชอบเทอ จะเขียนคำตอบที่หอบหัวใจไปฝัน
    C#m F#m C#m F#m Bm
    * และฉันเปนคนที่ประทับใจเทอเช่นกัน และฉันก้อไม่กล้าที่จะพูดไป ได้แต่ยิ้มให้เทอเบาๆ
    C#m D E
    อยู่ในมุมที่เทอไม่สนใจ แอบมองดูเทอไกลๆอย่างนี้ต่อไป
    A D Bm E A
    ** ได้แอบมองเทอข้างเดียวอยู่ที่มุมนี้ ก้อพอแล้วไม่มี เงื่อนไขใดๆในความหวังดี
    D Bm E A/D/Bm/E
    แค่ได้ชอบเทออย่างตอนนี้ ก้อถือเปนโชคชะตาดีๆ ที่คนอย่างฉันได้เกิดมาพบกับเทอ


    A D A
    หากเราใกล้กันมากกว่านี้ สักวันมันอาจจะไม่ดี บางสิ่งในใจฉันอาจทำเทอลำบาก
    D
    ก้อปล่อยเทอลอยอยู่ฟ้า ขอมองดูเทอจากพื้นดิน แค่เพียงได้เห็นเทอฉันก้อสุขใขแล้ว (*,**)
    D A D A
    และถ้าวันนึงเทอเหนื่อยล้าจากเรื่องต่างๆ จนเทอรู้สึกว่าโลกนี้เหมือนกับไม่เหลือใคร
    D A D E
    โปรดจงรู้เอาไว้ ว่าโลกนี้ยังมีความห่วงใย จากมุมเล็กๆตรงนี้เสมอ

    solo : A/D/Bm/E 2 times
    (**)
    A D Bm E A
    ได้แอบมองเทอข้างเดียวอยู่ที่มุมนี้ ก้อพอแล้วไม่มี เงื่อนไขใดๆในความหวังดี
    D Bm E
    เอาเรื่องดีดีที่มีตอนนี้ กับการได้รู้ว่าเทอคนนี้ได้มีความสุขแค่เพียงเท่านี้ชั้นก็อุ่นใจ

    A/D/Bm/E 2 times


    เปนไงคับใช้ได้มะคับ
  • Hadder
    Guest
  • 29 ธ.ค.2547,21:19น.
    สุดยอดเลย  Hollow

    แล้วเมื่อกี้ไปเล่น ตาส่วาง มาก็เหมือนน่ะ
    ((ขอคอร์ดกีต้าร์))
  • Gu_Mr.K
    Guest
  • 31 ธ.ค.2547,22:27น.
    มุม



    Intro G/Bm/Em/C

    G Bm C
    Cm
    หากใครคนนึงมีคำถาม สักวันคุณอยากจะพบใคร คำตอบในใจคือใครที่คุณต้องการ
    G Bm C Cm
    เธอคือคนที่ดีพร้อม ใครๆต่างพากันชอบเธอ เธอคือคำตอบที่ทุกหัวใจใฝ่ฝัน

    Bm Em Bm
    Em
    *และ(แม้)ชั้นเป็นคนที่ประทับใจเธอเช่นกัน แต่ฉันก็ไม่กล้าที่จะพูดไป
    Am Bm C
    D
    ได้แต่ยิ้มให้เธอเบาๆอยู่ในมุมที่เธอ ไม่สนใจ แอบมองดูเธอไกลๆอย่างนี้ต่อไป

    G Em C Cm
    Bm
    **ได้แอบมองเธอข้างเดียวอยู่ที่มุมนี้ ก็พอ..แล้ว ไม่มี
    เงื่อนไขใดๆในความหวังดี
    Em C Am
    G
    แค่ได้ชอบเธออยู่ตอนนี้ ก็ถือเป็นโชคชะตาดีๆ ที่คนอย่างชั้นได้เกิดมาพบกับเธอ

    G Bm C Cm
    หากเราใกล้กันและเกินนี้ สักวันมันอาจจะไม่ดี บางสิ่งในใจฉันอาจทำเธอลำบาก
    G Bm C
    Cm
    ก็ปล่อยเธอลอยอยู่บนฟ้า คอยมองดูเธอจากพื้นดิน แค่เพียงได้เห็นเธอ
    ชั้นก็สุขใจแล้ว


    ซ้ำ *,**

    C Bm C
    Bm
    แต่ถ้าวันนึงเธอเหนื่อยล้าจากเรื่องต่างๆ
    จนเธอรู้สึกว่าโลกนี้เหมือนกับไม่เหลือใคร
    C Bm C
    D
    โปรดจงรู้ เอาไว้ ว่าโลกนี้ยังมีความห่วงใย จากมุมเล็กๆตรงนี้เสมอ โฮ้...โฮ

    (solo)

    ซ้ำ **

    G Em C Cm
    Bm
    ได้แอบมองเธอข้างเดียวอยู่ที่มุมนี้ ก็พอ..แล้ว ไม่มี เงื่อนไขใดๆในความหวังดี
    Em C D
    G
    ก็เรื่องดีดีที่มีตอนนี้ ก็ได้แต่รู้ว่าเธอคนนี้
    ได้มีความสุขแค่เพียงเท่านี้ฉันก็อุ่นใจ

  • แห้วคุง
    Guest
  • 1 ม.ค.2548,21:51น.
    ฟังได้ที่ใหนอะ บอกกานมั่ง
    ((ขอคอร์ดกีต้าร์))
  • Nizkk`
    Guest
  • 2 ม.ค.2548,00:29น.
    อานเน้ดีก่าครับของแท้ เอามาจากพี่ ตุ้ย PG โดยตรงเลย
    มุม
    Playground

    Intro : G/Gmaj7/Em/C (2 times)

    G C
    หากใครคนนึงมีคำถาม สักวันคุณอยากจะพบใคร

    คำตอบในใจคือใครที่คุณต้องการ
    G C
    เธอคือคนที่ดีพร้อม ใครๆต่างพากันชอบเธอ

    เธอคือคำตอบที่ทุกหัวใจใฝ่ฝัน

    Bm Em
    * (และ)(แม้)ฉันเป็นคนที่ประทับใจเธอเช่นกัน
    Bm Em
    แต่ฉันก็ไม่กล้าที่จะพูดไป
    Am Bm
    ได้แต่ยิ้มให้เธอเบาๆอยู่ในมุมที่เธอไม่สนใจ
    C D
    แอบมองดูเธอไกลๆอย่างนี้ต่อไป

    G Em C
    ** ได้แอบมองเธอข้างเดียวอยู่ที่มุมนี้ ก็พอแล้ว
    Cm
    ไม่มีเงื่อนไขใดๆในความหวังดี
    Bm Em C
    แค่ได้ชอบเธออยู่ตอนนี้ ก็ถือเป็นโชคชะตาดีๆ
    Cm (D)
    ที่คนอย่างฉันได้เกิดมาพบกับเธอ

    Instru : G/Gmaj7/Em/C

    G C
    หากเราใกล้กันมากกว่านี้ สักวันมันอาจจะไม่ดี

    บางสิ่งในใจฉันอาจทำเธอลำบาก
    G C
    ก็ปล่อยเธอลอยอยู่บนฟ้า ขอมองดูเธอจากพื้นดิน

    แค่เพียงได้เห็นเธอฉันก็สุขใจแล้ว

    (*,**)

    Cmaj7 Bm
    และถ้าวันนึงเธอเหนื่อยล้าจากเรื่องต่างๆ
    Cmaj7 Bm
    จนเธอรู้สึกว่าโลกนี้เหมือนกับไม่เหลือใคร
    Cmaj7 Bm
    โปรดจงรู้เอาไว้ ว่าโลกนี้ยังมีความห่วยใย
    C D
    จากมุมเล็กๆตรงนี้เสมอ....

    Solo : G/Em/C/Cm/Bm/Em/C/D

    (**)

    G Em C
    ได้แอบมองเธอข้างเดียวอยู่ที่มุมนี้ ก็พอแล้ว
    Cm
    ไม่มีเงื่อนไขใดๆในความหวังดี
    Bm Em
    เพราะเรื่องดีๆที่มีตอนนี้
    C D
    คือการได้รู้ว่าเธอคนนี้ได้มีความสุข

    แค่เพียงเท่านี้ฉันก็อุ่นใจ

    Outro : G/Gmaj7/Em/C (2 times)

    ถูกชัวครับ ถ้ากีต้าเป็นสายมาตราฐานนะ
  • แบงค์...........
    Guest
  • 2 ม.ค.2548,18:56น.
    มุม  ..  playground

    Intro: G/Em/C/Cm (2times)

    G Em C Cm G Em
    หากใครคนนึงมีคำถาม สักวันคุณอยากจะพบใคร คำตอบในใจคือใครที่คุณต้องการ เธอคือคนที่ดีพร้อม
    C Cm
    ใครๆต่างพากันชอบเธอ เธอคือคำตอบที่ทุกหัวใจใฝ่ฝัน
    Em C Bm Em Am Bm
    * และ(แม้)ฉันเป็นคนที่ประทับใจเธอเช่นกัน แต่ฉันก็ไม่กล้าที่จะพูดไป ได้แต่ยิ้มให้เธอเบาๆอยู่ในมุมที่เธอ
    C D
    ไม่สนใจ แอบมองดูเธอไกลๆอย่างนี้ต่อไป
    G Em C Cm G Em
    ** ได้แอบมองเธอข้างเดียวอยู่ที่มุมนี้ก็พอแล้วไม่มีเงื่อนไขใดๆในความหวังดี แค่ได้ชอบเธออย่างตอนนี้
    C Cm (G/Em/C/Cm) (C) (G)
    ก็ถือเป็นโชคชะตาดีๆที่คนอย่างฉันได้เกิดมาพบกับเธอ

    G Em C Cm G Em
    หากเราใกล้กันมากกว่านี้ สักวันมันอาจจะไม่ดี บางสิ่งในใจฉันอาจทำเธอลำบาก ก็ปล่อยเธอลอยอยู่บน
    C Cm
    ฟ้า ขอมองดูเธอจากพื้นดิน แค่เพียงได้เห็นเธอฉันก็สุขใจแล้ว

    (*,**)
    C Bm C Bm C
    และถ้าวันนึงเธอเหนื่อยล้าจากเรื่องต่างๆจนเธอรู้สึกว่าโลกนี้เหมือนกับไม่เหลือใคร โปรดจงรู้เอาไว้ว่าโลก
    Bm Am D
    นี้ยังมีความห่วงใยจากมุมเล็กๆตรงนี้เสมอ

    Solo: G/Em/C/Cm/G/Em/C/D


    (**)

    G Em C Cm G Em
    ได้แอบมองเธอข้างเดียวอยู่ที่มุมนี้ก็พอแล้วไม่มีเงื่อนไขใดๆในความหวังดี เพราะเรื่องดีๆที่มีตอนนี้ คือ
    C Cm G/Em/C/Cm (2times) G
    การได้รู้ว่าเธอคนนี้ได้มีความสุขแค่เพียงเท่านี้ฉันก็อุ่นใจ

    ............................................
  • แห้วคุง
    Guest
  • 2 ม.ค.2548,21:44น.
    อยากได้ โซโล่มากกกกกกกกกกกกกก ขอทีเอาด่วนคับ

    เ พ ล ง นี้ เ พ ร า ะ ม า ก ต ง ตั ว เ ป ะ
    ((ขอคอร์ดกีต้าร์))
  • แบงค์
    Guest
  • 3 ม.ค.2548,12:58น.
    มุม  ..  playground

    Intro: G/D/Em/C (2times)

    G C G
    หากใครคนนึงมีคำถาม สักวันคุณอยากจะพบใคร คำตอบในใจคือใครที่คุณต้องการ เธอคือคนที่ดีพร้อม
    C
    ใครๆต่างพากันชอบเธอ เธอคือคำตอบที่ทุกหัวใจใฝ่ฝัน
    Em Cmaj7 Bm Em Am Bm
    * และ(แม้)ฉันเป็นคนที่ประทับใจเธอเช่นกัน แต่ฉันก็ไม่กล้าที่จะพูดไป ได้แต่ยิ้มให้เธอเบาๆอยู่ในมุมที่เธอ
    C D
    ไม่สนใจ แอบมองดูเธอไกลๆอย่างนี้ต่อไป
    G Em C Cm Bm Em
    ** ได้แอบมองเธอข้างเดียวอยู่ที่มุมนี้ก็พอแล้วไม่มีเงื่อนไขใดๆในความหวังดี แค่ได้ชอบเธออย่างตอนนี้
    C Cm (G/D/Em/C) (C) (G)
    ก็ถือเป็นโชคชะตาดีๆที่คนอย่างฉันได้เกิดมาพบกับเธอ

    G C G
    หากเราใกล้กันมากกว่านี้ สักวันมันอาจจะไม่ดี บางสิ่งในใจฉันอาจทำเธอลำบาก ก็ปล่อยเธอลอยอยู่บน
    C
    ฟ้า ขอมองดูเธอจากพื้นดิน แค่เพียงได้เห็นเธอฉันก็สุขใจแล้ว

    (*,**)
    C Bm C Bm C
    และถ้าวันนึงเธอเหนื่อยล้าจากเรื่องต่างๆจนเธอรู้สึกว่าโลกนี้เหมือนกับไม่เหลือใคร โปรดจงรู้เอาไว้ว่าโลก
    Bm Am D
    นี้ยังมีความห่วงใยจากมุมเล็กๆตรงนี้เสมอ

    Solo: G/Em/C/Cm/Bm/Em/C/D


    (**)

    G Em C Cm Bm Em
    ได้แอบมองเธอข้างเดียวอยู่ที่มุมนี้ก็พอแล้วไม่มีเงื่อนไขใดๆในความหวังดี เพราะเรื่องดีๆที่มีตอนนี้ คือ
    C Cm G/D/Em/C (2times) G
    การได้รู้ว่าเธอคนนี้ได้มีความสุขแค่เพียงเท่านี้ฉันก็อุ่นใจ


    อันนี้แน่นอน(มั้ง)ลองเล่นดูคิดว่าตรง
  • แบงค์
    Guest
  • 3 ม.ค.2548,13:00น.
    แกะมาให้ใหม่อัแรกมันผิดนิดหน่อย............อันนี้คิดว่าใช่...
  • แบงค์
    Guest
  • 3 ม.ค.2548,13:25น.
    มุม  ..  playground

    Intro: G/Dsus4/Em/C (2times)

    G C G
    หากใครคนนึงมีคำถาม สักวันคุณอยากจะพบใคร คำตอบในใจคือใครที่คุณต้องการ เธอคือคนที่ดีพร้อม
    C
    ใครๆต่างพากันชอบเธอ เธอคือคำตอบที่ทุกหัวใจใฝ่ฝัน
    Bm Em Bm Em Am Bm
    * และ(แม้)ฉันเป็นคนที่ประทับใจเธอเช่นกัน แต่ฉันก็ไม่กล้าที่จะพูดไป ได้แต่ยิ้มให้เธอเบาๆอยู่ในมุมที่เธอ
    C Dsus4
    ไม่สนใจ แอบมองดูเธอไกลๆอย่างนี้ต่อไป
    G Em C Cm Bm Em
    ** ได้แอบมองเธอข้างเดียวอยู่ที่มุมนี้ก็พอแล้วไม่มีเงื่อนไขใดๆในความหวังดี แค่ได้ชอบเธออย่างตอนนี้
    C Cm (G/Dsus4/Em/C) (C) (G)
    ก็ถือเป็นโชคชะตาดีๆที่คนอย่างฉันได้เกิดมาพบกับเธอ

    G C G
    หากเราใกล้กันมากกว่านี้ สักวันมันอาจจะไม่ดี บางสิ่งในใจฉันอาจทำเธอลำบาก ก็ปล่อยเธอลอยอยู่บน
    C
    ฟ้า ขอมองดูเธอจากพื้นดิน แค่เพียงได้เห็นเธอฉันก็สุขใจแล้ว

    (*,**)
    C Bm C Bm C
    และถ้าวันนึงเธอเหนื่อยล้าจากเรื่องต่างๆจนเธอรู้สึกว่าโลกนี้เหมือนกับไม่เหลือใคร โปรดจงรู้เอาไว้ว่าโลก
    Bm Am Dsus4
    นี้ยังมีความห่วงใยจากมุมเล็กๆตรงนี้เสมอ

    Solo: G/Em/C/Cm/Bm/Em/C/Dsus4


    (**)

    G Em C Cm Bm Em
    ได้แอบมองเธอข้างเดียวอยู่ที่มุมนี้ก็พอแล้วไม่มีเงื่อนไขใดๆในความหวังดี เพราะเรื่องดีๆที่มีตอนนี้ คือ
    C Cm G/Dsus4/Em/C (2times) G
    การได้รู้ว่าเธอคนนี้ได้มีความสุขแค่เพียงเท่านี้ฉันก็อุ่นใจ


  • Kinim@ri
    Guest
  • 5 ม.ค.2548,05:43น.
    Intro
    1)-----------------------------------------------------------------------------------------------------
    2)------------------------------------------0--------------------------------------------1--0--------
    3)-----------2-2-2--0-0---------2-2-2----0----------0-0-----0-------------0-------------0-----
    4)--------0---------------------0---------------------0--------4-------------0-----0---------------
    5)----------------------------------------------------------------------0---3-------------------------
    6)---/3---------------------2---------------------0---------------------------------------------------

    กว๊าซซซซซซซซซ
  • Krit
    Guest
  • 12 ม.ค.2548,21:04น.
    เอามาผสมกันอะ เพราะกว่า

    1)-----------------------------------------------------------------------------------------------------
    2)---------------------------------------------------------------------------------------1--0--------
    3)-----------2-2-2--0-0---------2-2-2-2>4--0--------0-0-----0-------------0-------------0-----
    4)--------0---------------------0-----------------------0--------4-------------0-----0---------------
    5)----------------------------------------------------------------------0---3-------------------------
    6)---/3---------------------2-----------------------0---------------------------------------------------
  • [SavEdaS][Jr]
    Guest
  • 13 ม.ค.2548,20:42น.
    6)--3-------------2---------------0------------0----------------------
    5)-------------------------------------------------2h3-----------------
    4)---0--------------0---------------0--0-4/5-------0---0-----------
    3)----2-2-2-0-0----2-2-2-4-0----0-----------------0--------0----
    2)-------------------------------------------------------------1-0------
    1)------------------------------------------------------------------------

    แก้ใหม่ลองดูเละกันอันไหนเหมือนสุด ใครแกะ solo เหมือนๆเอามาที่ดิ


  • Arakisami
    Guest
  • 14 ม.ค.2548,19:29น.

    เพลงนี้คีย์ A นะคับ ถ้าฟังแล้วจะรู้สึกว่า sound ดนตรีมันคล้ายเพลง soul mate นะคับ
    ลองเทียบคีย์แล้วก็โอเค ถ้าใครไม่เคยฟังก็ลองเอา 2 เพลงมาเทียบกันดู แล้วลองฟังเสียง
    ดนตรีดูนะคับ



  • ็Hadder
    Guest
  • 25 ม.ค.2548,21:50น.
    Solo
    1-------------------------------------------------------------------------------------------------
    2-8--8--8--8---10-10^-12-8---8-10^-----7-8-8-7-8-7-8----8/10--8-8------------
    3---7--7--7-------------------------------------------------------------------9----------------
    4-------------------------------------------------------------------------------------------------

    1-------------------------------------------------------------------------------------------------
    2----------8--8--8--------------------10-10---10h12p10---8----------------------------
    3--------9--9------9--------------------------11----------------------------------------------
    4--10------------------10SL12--------------------------------------------------------------


    อันนี้อ่ะผมแกะ ไม่ใช่หรอ งง งง งง งง
  • [P]unishu[L]a_Kung
    Guest
  • 29 ม.ค.2548,17:24น.
    ผมว่าอันนี้น่าจะตรงที่สุดนะงับ แหะๆ

    Intro : G/Gmaj7/Em/C (2 times)

    G C
    หากใครคนนึงมีคำถาม สักวันคุณอยากจะพบใคร

    คำตอบในใจคือใครที่คุณต้องการ
    G C
    เธอคือคนที่ดีพร้อม ใครๆต่างพากันชอบเธอ

    เธอคือคำตอบที่ทุกหัวใจใฝ่ฝัน

    Bm Em
    * (และ)(แม้)ฉันเป็นคนที่ประทับใจเธอเช่นกัน
    Bm Em
    แต่ฉันก็ไม่กล้าที่จะพูดไป
    Am Bm
    ได้แต่ยิ้มมีเธอเบาๆอยู่ในมุมที่เธอไม่สนใจ
    C D
    แอบมองดูเธอไกลๆอย่างนี้ต่อไป

    G Em C
    ** ได้แอบมองเธอข้างเดียวอยู่ที่มุมนี้ ก็พอแล้ว
    Cm
    ไม่มีเงื่อนไขใดๆในความหวังดี
    Bm Em C
    แค่ได้ชอบเธออยู่ตอนนี้ ก็ถือเป็นโชคชะตาดีๆ
    Cm (D)
    ที่คนอย่างฉันได้เกิดมาพบกับเธอ

    Instru : G/Gmaj7/Em/C

    G C
    หากเราใกล้กันมากกว่านี้ สักวันมันอาจจะไม่ดี

    บางสิ่งในใจฉันอาจทำเธอลำบาก
    G C
    ก็ปล่อยเธอลอยอยู่บนฟ้า เฝ้ามองดูเธอจากพื้นดิน

    แค่เพียงได้เห็นเธอฉันก็สุขใจแล้ว

    (*,**)

    Cmaj7 Bm
    และถ้าวันนึงเธอเหนื่อยล้าจากเรื่องต่างๆ
    Cmaj7 Bm
    จนเธอรู้สึกว่าโลกนี้เหมือนกับไม่เหลือใคร
    Cmaj7 Bm
    โปรดจงรู้เอาไว้ ว่าโลกนี้ยังมีความห่วงใย
    C D
    จากมุมเล็กๆตรงนี้อีกหนึ่งมุม

    Solo : G/Em/C/Cm/Bm/Em/C/D

    (**)

    G Em C
    ได้แอบมองเธอข้างเดียวอยู่ที่มุมนี้ ก็พอแล้ว
    Cm
    ไม่มีเงื่อนไขใดๆในความหวังดี
    Bm Em
    เพราะเรื่องดีๆที่มีตอนนี้
    C D
    คือการได้รู้ว่าเธอคนนี้ได้มีความสุข

    แค่เพียงเท่านี้ฉันก็อุ่นใจ

    Outro : G/Gmaj7/Em/C (2 times)
  • P[o]ring_[K]ung~
    Guest
  • 30 ม.ค.2548,09:57น.
    Intro : G/Gmaj7/Em/C (2 times)

    G Bm C
    หากใครคนนึงมีคำถาม สักวันคุณอยากจะพบใคร

    คำตอบในใจคือใครที่คุณต้องการ
    G Bm C
    เธอคือคนที่ดีพร้อม ใครๆต่างพากันชอบเธอ
    Cm
    เธอคือคำตอบที่ทุกหัวใจใฝ่ฝัน

    Bm Em
    * (และ)(แม้)ฉันเป็นคนที่ประทับใจเธอเช่นกัน
    Bm Em
    แต่ฉันก็ไม่กล้าที่จะพูดไป
    Am Bm
    ได้แต่ยิ้มมีเธอเบาๆอยู่ในมุมที่เธอไม่สนใจ
    C D
    แอบมองดูเธอไกลๆอย่างนี้ต่อไป

    G Em C
    ** ได้แอบมองเธอข้างเดียวอยู่ที่มุมนี้ ก็พอแล้ว
    Cm
    ไม่มีเงื่อนไขใดๆในความหวังดี
    Bm Em C
    แค่ได้ชอบเธออยู่ตอนนี้ ก็ถือเป็นโชคชะตาดีๆ
    Cm
    ที่คนอย่างฉันได้เกิดมาพบกับเธอ

    Instru : G/Gmaj7/Em/C

    G Bm C
    หากเราใกล้กันมากกว่านี้ สักวันมันอาจจะไม่ดี

    บางสิ่งในใจฉันอาจทำเธอลำบาก
    G Bm C
    ก็ปล่อยเธอลอยอยู่บนฟ้า เฝ้ามองดูเธอจากพื้นดิน
    Cm
    แค่เพียงได้เห็นเธอฉันก็สุขใจแล้ว

    (*,**)

    Cmaj7 Bm
    และถ้าวันนึงเธอเหนื่อยล้าจากเรื่องต่างๆ
    Cmaj7 Bm
    จนเธอรู้สึกว่าโลกนี้เหมือนกับไม่เหลือใคร
    Cmaj7 Bm
    โปรดจงรู้เอาไว้ ว่าโลกนี้ยังมีความห่วงใย
    C D
    จากมุมเล็กๆตรงนี้อีกหนึ่งมุม

    Solo : G/Em/C/Cm/Bm/Em/C/D

    (**)

    G Em C
    ได้แอบมองเธอข้างเดียวอยู่ที่มุมนี้ ก็พอแล้ว
    Cm
    ไม่มีเงื่อนไขใดๆในความหวังดี
    Bm Em
    เพราะเรื่องดีๆที่มีตอนนี้
    C D
    คือการได้รู้ว่าเธอคนนี้ได้มีความสุข

    แค่เพียงเท่านี้ฉันก็อุ่นใจ

    Outro : G/Gmaj7/Em/C (2 times)


  • ตูน...
    Guest
  • 30 ม.ค.2548,23:49น.
    เอามาจากพี่ตุ้ยมือกีต้าเพลย์กราวด์เลยอะคับ
    เค้าโพสไว้ในบอร์ดaboutPlayground.com


    มุม : Playground

    Intro : G Gmaj7 Em C (2 times)

    G Bm C
    หากใครคนนึงมีคำถาม สักวันคุณอยากจะพบใคร
    G
    คำตอบในใจคือใครที่คุณต้องการ
    Bm C
    เธอคือคนที่ดีพร้อม ใครๆต่างพากันชอบเธอ

    เธอคือคำตอบที่ทุกหัวใจใฝ่ฝัน

    Bm Em
    * และ(แม้)ฉันเป็นคนที่ประทับใจเธอเช่นกัน
    Bm Em
    แต่ฉันก็ไม่กล้าที่จะพูดไป
    Am Bm
    ได้แต่ยิ้มให้เธอเบาๆอยู่ในมุมที่เธอไม่สนใจ
    C D
    แอบมองดูเธอไกลๆอย่างนี้ต่อไป

    G Em C
    ** ได้แอบมองเธอข้างเดียวอยู่ที่มุมนี้ ก็พอแล้ว
    Cm Bm
    ไม่มีเงื่อนไขใดๆในความหวังดี
    Em C
    แค่ได้ชอบเธออยู่ตอนนี้ ก็ถือเป็นโชคชะตาดีๆ
    Cm(D)
    ที่คนอย่างฉันได้เกิดมาพบกับเธอ

    Instru : G Gmaj7 Em C

    G Bm C
    หากเราใกล้กันมากกว่านี้ สักวันมันอาจจะไม่ดี
    G
    บางสิ่งในใจฉันอาจทำเธอลำบาก
    Bm C
    ก็ปล่อยเธอลอยอยู่บนฟ้า ขอมองดูเธอจากพื้นดิน

    แค่เพียงได้เห็นเธอฉันก็สุขใจแล้ว

    (*,**)

    Cmaj7 Bm
    แต่ถ้าวันนึงเธอเหนื่อยล้าจากเรื่องต่างๆ
    Cmaj7 Bm
    จนเธอรู้สึกว่าโลกนี้เหมือนกับไม่เหลือใคร
    Cmaj7 Bm
    โปรดจงรู้เอาไว้ ว่าโลกนี้ยังมีความห่วงใย
    Am D
    จากมุมเล็กๆตรงนี้เสมอ....

    Solo : G Em C Cm Bm Em C D


    (**)

    G Em C
    ได้แอบมองเธอข้างเดียวอยู่ที่มุมนี้ ก็พอแล้ว
    Cm Bm
    ไม่มีเงื่อนไขใดๆในความหวังดี
    Em
    เพราะเรื่องดีๆที่มีตอนนี้
    C D
    คือการได้รู้ว่าเธอคนนี้ได้มีความสุข

    แค่เพียงเท่านี้ฉันก็อุ่นใจ

    Outro : G Gmaj7 Em C (2 times)
  • i3e@nา บีม
    Guest
  • 2 ก.พ.2548,17:08น.
    ผมว่า intro น่าจะเปนอย่างนี้คับ 
    1 ----------------------- ---------------------- --------------------- ---------------------------
    2 ----------------------- ---------------------- --------------------- ---------------1-----0--
    3 ----2-2-2---0--0--- -----2-2-2--4--0--- -----0------0------ ---------0--------------0
    4 --0------------------- ---0------------------ ---0--0--4------0- ------2---2-------------
    5 ----------------------- ----------------------- -------------------- --3-----------------------
    6 3--------------------- -2-------------------- -0------------------ -------------------------
  • i3e@nา บีม
    Guest
  • 2 ก.พ.2548,17:22น.

    มุม : Playground

    Intro : G Gmaj7 Em C (2 times)

    G C
    หากใครคนนึงมีคำถาม สักวันคุณอยากจะพบใคร
    G
    คำตอบในใจคือใครที่คุณต้องการ
    C
    เธอคือคนที่ดีพร้อม ใครๆต่างพากันชอบเธอ

    เธอคือคำตอบที่ทุกหัวใจใฝ่ฝัน

    Bm Em
    * และ(แม้)ฉันเป็นคนที่ประทับใจเธอเช่นกัน
    Bm Em
    แต่ฉันก็ไม่กล้าที่จะพูดไป
    Am Bm
    ได้แต่ยิ้มให้เธอเบาๆอยู่ในมุมที่เธอไม่สนใจ
    Cmaj7 D
    แอบมองดูเธอไกลๆอย่างนี้ต่อไป

    G Em C
    ** ได้แอบมองเธอข้างเดียวอยู่ที่มุมนี้ ก็พอแล้ว
    Cm Bm
    ไม่มีเงื่อนไขใดๆในความหวังดี
    Em C
    แค่ได้ชอบเธออยู่ตอนนี้ ก็ถือเป็นโชคชะตาดีๆ
    Cm(D)
    ที่คนอย่างฉันได้เกิดมาพบกับเธอ

    Instru : G Gmaj7 Em C

    G C
    หากเราใกล้กันมากกว่านี้ สักวันมันอาจจะไม่ดี
    G
    บางสิ่งในใจฉันอาจทำเธอลำบาก
    C
    ก็ปล่อยเธอลอยอยู่บนฟ้า ขอมองดูเธอจากพื้นดิน

    แค่เพียงได้เห็นเธอฉันก็สุขใจแล้ว

    (*,**)

    Cmaj7 Bm
    แต่ถ้าวันนึงเธอเหนื่อยล้าจากเรื่องต่างๆ
    Cmaj7 Bm
    จนเธอรู้สึกว่าโลกนี้เหมือนกับไม่เหลือใคร
    Cmaj7 Bm
    โปรดจงรู้เอาไว้ ว่าโลกนี้ยังมีความห่วงใย
    Am D
    จากมุมเล็กๆตรงนี้เสมอ....

    Solo : G Em C Cm Bm Em C D


    (**)

    G Em C
    ได้แอบมองเธอข้างเดียวอยู่ที่มุมนี้ ก็พอแล้ว
    Cm Bm
    ไม่มีเงื่อนไขใดๆในความหวังดี
    Em
    เพราะเรื่องดีๆที่มีตอนนี้
    C D
    คือการได้รู้ว่าเธอคนนี้ได้มีความสุข

    แค่เพียงเท่านี้ฉันก็อุ่นใจ

    Outro : G Gmaj7 Em C (2 times)
    เอามาจาก คุณกระทู้ข้างบนอะคับ ผมว่ามันไม่น่าจามีคอร์ด Bm บางท่อน
  • m
    Guest
  • 5 ก.พ.2548,22:18น.
    ตกลงคีย์ A หรือG อะ 
    ((ขอคอร์ดกีต้าร์))
  • m
    Guest
  • 5 ก.พ.2548,22:19น.
    ตกลงคีย์ A หรือG อะ 
    ((ขอคอร์ดกีต้าร์))
  • [B]es[T]_[B]o[Y]
    Guest
  • 9 ก.พ.2548,22:36น.
    เอามาจากพวกพี่ๆที่แกะมาแล้วอ่ะนะ ลองมาแก้ๆเอา
    Intro
    2|-------------------------------------------------------
    3|------------2-2-2-0-0----------2-2-2--4--0------
    4|--------0----------------------0----------------------
    5|-------------------------------------------------------
    6|---/3----------------------2-------------------------

    2|----------------------------------------------1-0-----
    3|----------0-------0------------------0-----------0--
    4|--------2--2---4------------------2--2-------------
    5|-------------------------0---2/3--------------------
    6|---0--------------------------------------------------

    ขอแก้ชื่อหน่อยน้า หุหุ

    ปล. ผมเพิ่งเริ่มแกะเพลงอ่ะนะ ถ้าให้เริ่มต้นเองเลยก็ไม่รุ้จาเริ่มยังไง
    อาศัยมาดัดแปลงจาพี่ๆที่แกะไว้อยู๋แล้ว คงจะไม่ว่าอะไรผมนะ

    มีเทคนิคอะไรดีๆก็บอกผมบ้างน้า
  • โมท_บางทราย เด็กปอเนาะ ช่างไฟฟ้า 2/2
    Guest
  • 11 ก.พ.2548,12:54น.
    มุม Playground
    Intro : G/Gmaj7/Em/C (2 times)
    G C
    หากใครคนนึงมีคำถาม สักวันคุณอยากจะพบใคร

    คำตอบในใจคือใครที่คุณต้องการ
    G C
    เธอคือคนที่ดีพร้อม ใครๆต่างพากันชอบเธอ

    เธอคือคำตอบที่ทุกหัวใจใฝ่ฝัน
    Bm Em
    * (และ)(แม้)ฉันเป็นคนที่ประทับใจเธอเช่นกัน
    Bm Em
    แต่ฉันก็ไม่กล้าที่จะพูดไป
    Am Bm
    ได้แต่ยิ้มให้เธอเบาๆอยู่ในมุมที่เธอไม่สนใจ
    C D
    แอบมองดูเธอไกลๆอย่างนี้ต่อไป
    G Em C
    ** ได้แอบมองเธอข้างเดียวอยู่ที่มุมนี้ ก็พอแล้ว
    Cm
    ไม่มีเงื่อนไขใดๆในความหวังดี
    Bm Em C
    แค่ได้ชอบเธออยู่ตอนนี้ ก็ถือเป็นโชคชะตาดีๆ
    Cm (D)
    ที่คนอย่างฉันได้เกิดมาพบกับเธอ
    Instru : G/Gmaj7/Em/C
    G C
    หากเราใกล้กันมากกว่านี้ สักวันมันอาจจะไม่ดี

    บางสิ่งในใจฉันอาจทำเธอลำบาก
    G C
    ก็ปล่อยเธอลอยอยู่บนฟ้า ขอมองดูเธอจากพื้นดิน

    แค่เพียงได้เห็นเธอฉันก็สุขใจแล้ว
    (*,**)
    Cmaj7 Bm
    และถ้าวันนึงเธอเหนื่อยล้าจากเรื่องต่างๆ
    Cmaj7 Bm
    จนเธอรู้สึกว่าโลกนี้เหมือนกับไม่เหลือใคร
    Cmaj7 Bm
    โปรดจงรู้เอาไว้ ว่าโลกนี้ยังมีความห่วยใย
    C D
    จากมุมเล็กๆตรงนี้เสมอ....
    Solo : G/Em/C/Cm/Bm/Em/C/D
    (**)
    G Em C
    ได้แอบมองเธอข้างเดียวอยู่ที่มุมนี้ ก็พอแล้ว
    Cm
    ไม่มีเงื่อนไขใดๆในความหวังดี
    Bm Em
    เพราะเรื่องดีๆที่มีตอนนี้
    C D
    คือการได้รู้ว่าเธอคนนี้ได้มีความสุข

    แค่เพียงเท่านี้ฉันก็อุ่นใจ
    Outro : G/Gmaj7/Em/C (2 times)
  • โมท_บางทราย เด็กปอเนาะ ช่างไฟฟ้า 2/2
    Guest
  • 11 ก.พ.2548,12:59น.
    มุม Playground
    Intro : G/Gmaj7/Em/C (2 times)
    G C
    หากใครคนนึงมีคำถาม สักวันคุณอยากจะพบใคร คำตอบในใจคือใครที่คุณต้องการ
    G C
    เธอคือคนที่ดีพร้อม ใครๆต่างพากันชอบเธอ เธอคือคำตอบที่ทุกหัวใจใฝ่ฝัน
    Bm Em
    * (และ)(แม้)ฉันเป็นคนที่ประทับใจเธอเช่นกัน
    Bm Em
    แต่ฉันก็ไม่กล้าที่จะพูดไป
    Am Bm
    ได้แต่ยิ้มให้เธอเบาๆอยู่ในมุมที่เธอไม่สนใจ
    C D
    แอบมองดูเธอไกลๆอย่างนี้ต่อไป
    G Em C
    ** ได้แอบมองเธอข้างเดียวอยู่ที่มุมนี้ ก็พอแล้ว
    Cm
    ไม่มีเงื่อนไขใดๆในความหวังดี
    Bm Em C
    แค่ได้ชอบเธออยู่ตอนนี้ ก็ถือเป็นโชคชะตาดีๆ
    Cm (D)
    ที่คนอย่างฉันได้เกิดมาพบกับเธอ
    Instru : G/Gmaj7/Em/C
    G C
    หากเราใกล้กันมากกว่านี้ สักวันมันอาจจะไม่ดี บางสิ่งในใจฉันอาจทำเธอลำบาก
    G C
    ก็ปล่อยเธอลอยอยู่บนฟ้า ขอมองดูเธอจากพื้นดิน แค่เพียงได้เห็นเธอฉันก็สุขใจแล้ว
    (*,**)
    Cmaj7 Bm
    และถ้าวันนึงเธอเหนื่อยล้าจากเรื่องต่างๆ
    Cmaj7 Bm
    จนเธอรู้สึกว่าโลกนี้เหมือนกับไม่เหลือใคร
    Cmaj7 Bm
    โปรดจงรู้เอาไว้ ว่าโลกนี้ยังมีความห่วยใย
    C D
    จากมุมเล็กๆตรงนี้เสมอ....
    Solo : G/Em/C/Cm/Bm/Em/C/D
    (**)
    G Em C
    ได้แอบมองเธอข้างเดียวอยู่ที่มุมนี้ ก็พอแล้ว
    Cm
    ไม่มีเงื่อนไขใดๆในความหวังดี
    Bm Em
    เพราะเรื่องดีๆที่มีตอนนี้
    C D
    คือการได้รู้ว่าเธอคนนี้ได้มีความสุข แค่เพียงเท่านี้ฉันก็อุ่นใจ
    Outro : G/Gmaj7/Em/C (2 times)
  • Hadder
    Guest
  • 19 ก.พ.2548,14:36น.
    Intro
    1)--------------------------------------------------------------------------------------------------------
    2)------------------------------------------0-----------------------------------------------1--0--------
    3)-----------2-2-2--0-0---------2-2-2----0----------0-0-----0----------------0-------------------
    4)--------0---------------------0---------------------0--------4----------------0-----0---------------
    5)----------------------------------------------------------------------0---2/3-------------------------
    6)--2/3---------------------2---------------------0----------------------------------------------------

    1)----------------------------------------------------------------------------------------------------------
    2)------------------------------------------0------------------------------------------------1--0---------
    3)-----0-----2-2-2--0-0---------2-2-2----0----------0-0-----0----------------0-------------0-----
    4)--------0---------------------0---------------------0--------4-----------------0-----0----------------
    5)----------------------------------------------------------------------0---2/3---------------------------
    6)-----3---------------------2---------------------0------------------------------------------------------

  • อิอิ
    Guest
  • 1 มี.ค.2548,10:56น.
    Solo
    1-------------------------------------------------------------------------------------------------
    2-8--8--8--8---10-10^-12-8---8-10^-----7-8-8-7-8-7-8----8/10--8-8------------
    3---7--7--7-------------------------------------------------------------------9----------------
    4-------------------------------------------------------------------------------------------------

    1-------------------------------------------------------------------------------------------------
    2----------8--8--8--------------------10-10---10h12p10---8----------------------------
    3--------9--9------9--------------------------11----------------------------------------------
    4--10------------------10SL12--------------------------------------------------------------
  • เด็กลำปางกัลยาณี
    Guest
  • 1 มี.ค.2548,19:58น.
    Solo :
    1-----------------------------------------------------------------------
    2-8--8--8--8---10-10-12-8---8-^10---SL7-8-8-8SL10-8-
    3---7--7--7----------------------------------------------------------
    4-----------------------------------------------------------------------

    1------------------------------------------------------------------------
    2-----------8--8--8---------------10-10-10h12p10---8-------
    3---------9--9------9--------------------11-------------------------
    4--SL10--------------10SL12---------------------------------

ขอเชิญร่วมแสดงความคิดเห็นครับ

คลิกที่รูป เพื่อแทรกรูปลงในข้อความ
  • Member :
    username
    password
  • Not a member :
    name
    email