Loading

คอร์ดเพลง ยอมรับ

แบล็คเฮด (Black Head)

อัพโหลดคลิปเพลงนี้ที่คุณ ร้อง/เล่น ด้วยตัวคุณเอง ได้แล้ววันนี้
ระหว่างการทดสอบระบบหากพบข้อผิดพลาด กรุณาแจ้งที่นี่
ยอมรับ - แบล็กเฮด


INTRO: / Cmaj7 / Fmaj9 Fmaj7 / Cmaj7 / Fmaj7 /


Cmaj7 Em
เรื่องระหว่างเรานั้น ใครก็มองว่าฉันผิด
Fmaj7 G C Cmaj7
ที่เป็นคนคิดบอกลาให้เธอเสียใจ
Cmaj7 Em
เขาคงไม่อาจรู้ ว่าเราเข้ากันไม่ได้
Fmaj7 G Csus2
ที่อยู่กันไป เพราะคำว่ารักและเป็นคนดี

Am G
* แต่เธอ คงรู้ถึงความรู้สึก
F C Am
อึดอัดใจที่เรานั้นมีตลอดมา
Em F G
เพียงแค่ฉันเป็นคนบอกลาก่อนเธอเท่านี้

C Em
** ฉันยอมรับผิด ทุกคำกล่าวหา
F G
ที่ฉันนั้นทิ้งเธอไป
C Em F
ขอโทษ ที่ฉันเปลี่ยนใจจากเธอไป
G C Em
ฉันยอมรับผิด ไม่มีข้อแม้
F G
ถึงฉันจะต้องเสียใจ
C Em F Fm
แต่ไม่อาจจะทนอย่างนี้อีกต่อไป

Cmaj7 Em
ฉันเองก็พอรู้ ที่เคยให้คำสัญญา
Fmaj7 G C
จะอยู่ด้วยกันตราบฟ้า และดินมลาย
Cmaj7 Em
แล้วมาจะวันนี้ ฉันเองเพิ่งรู้ว่าทำไม่ได้
F G C
ที่อยู่กันไป เพราะคำว่ารักและเป็นคนดี

( ซ้ำ * , ** )

Dm Em Dm Em
เมื่อเธอก็เป็นเธอ และฉันก็เป็นฉัน
Dm Em F G
เมื่อเราไม่เข้ากัน จะอยู่กันไป เพื่ออะไร


Instru : / C Em / Fmaj7 G / C Em / Fmaj7 G / Am /
/ Em / F G / C G /

( ซ้ำ ** , ** )

C
ยอมรับไว้คนเดียว
ส่งเพลงนี้ให้เพื่อน
วันที่โพสต์ : 30 เม.ย.2547,22:15น.
จำนวนผู้ชม : 145997 คน / แสดงความคิดเห็น : 24 ครั้ง
โพสต์โดย


จาก: bomb
Guest
เพลงแนะนำ
เพลงฮิต
เลือกแสดงเฉพาะ :

  • หนึ่ง กีต้าเทคนิคราชบุรี
    Guest
  • 31 ส.ค.2550,14:16น.

    เอาไปเลย 100%กับท่อนโซโล่ จากมือกีต้าบ้านโป่ง(หนึ่ง)เด็กเทคนิคราชบุรี

    เพลงยอมรับ
    1)------------------------------------------------------------------------------------------
    2)---------13----15^-----13^---15^---13--------------------------------------------
    3)-----12----12------12------------------------12h14---------------------------------

    1)---------------------------------------------------------------------------
    2)----------13------15^--------13^----15^-----13-------------------------------------
    3)----12-------12---------12----------------------------------------------------

    1)----------------------15----------------------15^15^--15^---15--12---13---13^-13^--
    2)---------13---15---------15-----13h15--------------------------------------------
    3)---12---------------------------------------------------------------------

    1)-----13^13--------------13--12---------------------13---12--------------
    2)---------------13--15---------------13------------------------------13--------
    3)----------------------------------------------12---14--------------------

    ฉัน ยอม รับ ผิด

    1)----------------------------------------13^13-12----------------------
    2)---13^13^13-13----------------------------------13------------------
    3)-------------------------12---14--------------------------------------------

    ท่อนก่อนท่อนฮุกครับ

    แต่เธอคงรู้ถคึงความรู้สึกอึดอัดใจ................

    1)-------------------15-------------------15-------------------15------------------
    2)--------------13--------13---------13------13-------13-------------------------
    3)----------14----------------------12-------------10-------------------------------------

    วนไปวนมาหาเองนะคับผมงงตอนพิมไม่มีกีต้าอยู่



    ฝากลายกีต้าสวยๆไว้ด้วยน้าไปลองทำดู มันแน่คร้าบ

    soloเพลงจุดหมาย ฝากกันไว้ครับเพลงแต่ง


    1)------------------------12----15-------------------------12----15---------
    2)------------------13----------------13----------------13-------------------
    3)-----12---14----------------------------12----14------------------------------

    1)------------------------15---18--------------------------------15--18--
    2)-----------------16-----------------16-----------------16---------
    3)-----15--17-------------------------------15---17-----------------------

    วนไป3รอบต่อด้วยจิ้ม ต้องใช้สปีดนิ้วมากอยู่นะครับ เรียกกันว่า สวิป

    1)--------------------------------------------------จิ้มโน๊ต13จิ้มปัดๆ
    2)------9---11---13----------------------------นิ้วกด9แล้วตบ11 ทำไป
    3)----------------------------------------------ครึ่งห้อง

    1)---------------------------------------------------จิ้มโน๊ต15จิ้มปัดๆ-
    2)-------11---13---15----------------------------นิ้วกด11แล้วตบ13 ทำไป-
    3)-----------------------------------------------------ครึ่งห้อง

  • หนึ่ง กีต้าเทคนิคราชบุรี
    Guest
  • 31 ส.ค.2550,14:16น.

    เอาไปเลย 100%กับท่อนโซโล่ จากมือกีต้าบ้านโป่ง(หนึ่ง)เด็กเทคนิคราชบุรี

    เพลงยอมรับ
    1)------------------------------------------------------------------------------------------
    2)---------13----15^-----13^---15^---13--------------------------------------------
    3)-----12----12------12------------------------12h14---------------------------------

    1)---------------------------------------------------------------------------
    2)----------13------15^--------13^----15^-----13-------------------------------------
    3)----12-------12---------12----------------------------------------------------

    1)----------------------15----------------------15^15^--15^---15--12---13---13^-13^--
    2)---------13---15---------15-----13h15--------------------------------------------
    3)---12---------------------------------------------------------------------

    1)-----13^13--------------13--12---------------------13---12--------------
    2)---------------13--15---------------13------------------------------13--------
    3)----------------------------------------------12---14--------------------

    ฉัน ยอม รับ ผิด

    1)----------------------------------------13^13-12----------------------
    2)---13^13^13-13----------------------------------13------------------
    3)-------------------------12---14--------------------------------------------

    ท่อนก่อนท่อนฮุกครับ

    แต่เธอคงรู้ถคึงความรู้สึกอึดอัดใจ................

    1)-------------------15-------------------15-------------------15------------------
    2)--------------13--------13---------13------13-------13-------------------------
    3)----------14----------------------12-------------10-------------------------------------

    วนไปวนมาหาเองนะคับผมงงตอนพิมไม่มีกีต้าอยู่



    ฝากลายกีต้าสวยๆไว้ด้วยน้าไปลองทำดู มันแน่คร้าบ

    soloเพลงจุดหมาย ฝากกันไว้ครับเพลงแต่ง


    1)------------------------12----15-------------------------12----15---------
    2)------------------13----------------13----------------13-------------------
    3)-----12---14----------------------------12----14------------------------------

    1)------------------------15---18--------------------------------15--18--
    2)-----------------16-----------------16-----------------16---------
    3)-----15--17-------------------------------15---17-----------------------

    วนไป3รอบต่อด้วยจิ้ม ต้องใช้สปีดนิ้วมากอยู่นะครับ เรียกกันว่า สวิป

    1)--------------------------------------------------จิ้มโน๊ต13จิ้มปัดๆ
    2)------9---11---13----------------------------นิ้วกด9แล้วตบ11 ทำไป
    3)----------------------------------------------ครึ่งห้อง

    1)---------------------------------------------------จิ้มโน๊ต15จิ้มปัดๆ-
    2)-------11---13---15----------------------------นิ้วกด11แล้วตบ13 ทำไป-
    3)-----------------------------------------------------ครึ่งห้อง

  • หนึ่งกีต้าทคนิคราชบุรี
    Guest
  • 31 ส.ค.2550,14:21น.

    แก้ไขหน่อยครับโทดๆผิดไปตัวนึง

    เอาไปเลย 100%กับท่อนโซโล่ จากมือกีต้าบ้านโป่ง(หนึ่ง)เด็กเทคนิคราชบุรี

    เพลงยอมรับ
    1)------------------------------------------------------------------------------------------
    2)---------13----15^-----13^---15^---13--------------------------------------------
    3)-----12----12------12------------------------12h14---------------------------------

    1)---------------------------------------------------------------------------
    2)----------13------15^--------13^----15^-----13-------------------------------------
    3)----12-------12---------12----------------------------------------------------

    1)------------------------15----------------------15^15^--15^---15--12---13---13^-13^--
    2)---------13---15--15^-------15-----13h15--------------------------------------------
    3)---12---------------------------------------------------------------------

    1)-----13^13--------------13--12---------------------13---12--------------
    2)---------------13--15---------------13------------------------------13--------
    3)----------------------------------------------12---14--------------------

    ฉัน ยอม รับ ผิด

    1)----------------------------------------13^13-12----------------------
    2)---13^13^13-13----------------------------------13------------------
    3)-------------------------12---14--------------------------------------------

    ท่อนก่อนท่อนฮุกครับ

    แต่เธอคงรู้ถคึงความรู้สึกอึดอัดใจ................

    1)-------------------15-------------------15-------------------15------------------
    2)--------------13--------13---------13------13-------13-------------------------
    3)----------14----------------------12-------------10-------------------------------------

    วนไปวนมาหาเองนะคับผมงงตอนพิมไม่มีกีต้าอยู่
    soloเพลงจุดหมาย ฝากกันไว้ครับเพลงแต่ง
    1)------------------------12-h15-------------------------12h15---------
    2)------------------13----------------13----------------13-------------------
    3)-----12---14----------------------------12----14------------------------------

    1)------------------------15h18--------------------------------15h18--
    2)-----------------16-----------------16-----------------16---------
    3)-----15--17-------------------------------15---17-----------------------

    วนไป3รอบต่อด้วยจิ้ม ต้องใช้สปีดนิ้วมากอยู่นะครับ เรียกกันว่า สวิป

    1)--------------------------------------------------จิ้มโน๊ต13จิ้มปัดๆ
    2)------9---11---13----------------------------นิ้วกด9แล้วตบ11 ทำไป
    3)----------------------------------------------ครึ่งห้อง

    1)---------------------------------------------------จิ้มโน๊ต15จิ้มปัดๆ-
    2)-------11---13---15----------------------------นิ้วกด11แล้วตบ13 ทำไป-
    3)-----------------------------------------------------ครึ่งห้อง

1

ขอเชิญร่วมแสดงความคิดเห็นครับ

คลิกที่รูป เพื่อแทรกรูปลงในข้อความ
  • Member :
    username
    password
  • Not a member :
    name
    email