Loading

คอร์ดเพลง ย้ำ

บอดี้สแลม (BodySlam)

อัพโหลดคลิปเพลงนี้ที่คุณ ร้อง/เล่น ด้วยตัวคุณเอง ได้แล้ววันนี้
ระหว่างการทดสอบระบบหากพบข้อผิดพลาด กรุณาแจ้งที่นี่
Artist : Body Slam
Title : ย้ำ

Intro : D/F#m/Em/A ( 3 Time )

D F#m Em A
ยังไม่เคยลืม ยังไม่เคยเลือน มันก็คงเป็น เหมือนเรื่องค้างคา
D F#m Em A
เราต้องจำจาก ทั้งที่เรายังรัก แล้วเราต้องร่ำลา

Bm F#m Bm7 E
* ไม่หวั่นไหว แม้ใจจะสุดเหงา อยากให้เรา มั่นคงอยู่อย่างนี้
G Em A
เก็บไว้ หัวใจเราที่มี ได้ไหม ( โน... )

D Dmaj7
** ( ฉันอยากจะ ) ย้ำ อีกสักครั้ง ให้เธอฟังฉัน อีกสักครั้ง
Bm A
แค่อยากจะย้ำ อยากจะย้ำ จนเธอนั้นมั่นใจ
D Dmaj7 F#m Bm
ถึงต่อให้นาน อีกนานสักเท่าไร ก็อยากให้เชื่อใจ ( โฮ... )
A Em A Em A
ว่าฉันรออยู่ และ ( ฉันจะรอต่อไป อย่างที่ได้เคยบอกไว้ จะรอเธอ )

Instru : D/G

D F#m Em A
ชีวิตคนเรา แม้ไม่ง่ายดาย ยอมรับในความหมาย ของมันเถอะ
D F#m Em A
ถึงแม้เราห่าง ขอให้ความอ้างว้าง ทำให้เราคิดถึงกัน

( ซ้ำ * , ** , ** )

Em A Em A Em A Em/A
ฉันจะรอต่อไป อย่างที่ได้เคยบอกไว้ และย้ำให้เธอได้มั่นใจ..ว่ารักเธอ..โอ เย..

D Dmaj7
*** รักที่มี ไม่ได้เปลี่ยนไปไหน ความห่างไกล ระหว่างเธอกับฉัน
Bm A
ลองหลับตา แล้วเจอะกันในฝัน ฉันจะย้ำ ให้เธอมั่นใจ

( ซ้ำ *** 'til fade )
ส่งเพลงนี้ให้เพื่อน
วันที่โพสต์ : 31 ม.ค.2547,10:19น.
จำนวนผู้ชม : 225794 คน / แสดงความคิดเห็น : 66 ครั้ง
โพสต์โดย


จาก: หนึ่ง ยังรักตาลเหมือนเดิม
Guest
เพลงแนะนำ
เพลงฮิต
เลือกแสดงเฉพาะ :

  • ggggggggggggggggggg
    Guest
  • 2 ก.พ.2547,19:14น.
    gggggggggggggg
    ((อัพเดทแหล่งทดลองฟัง))
  • ggggggggggggggggggg
    Guest
  • 2 ก.พ.2547,19:14น.
    gggggggggggggg
    ((อัพเดทแหล่งทดลองฟัง))
  • กอฟคุง
    Guest
  • 5 พ.ค.2547,16:17น.
    tab เริ่ม
    1-------------------------------------------
    2-------3--5--6-5------------3--5--3---
    3-----5---------------5----5-------------5

    1-------------------------------------------
    2-------3--5--6-5------------3----------
    3----5----------------5----5-----4--4--5
    ( มะแน่จาย )
    ((อัพเดทคอร์ดกีต้าร์))
  • Man YeanRider
    Guest
  • 8 มิ.ย.2548,04:08น.
    in D

    1)--------0--2---3p2----
    2)---2/3---------------3-

    1)-------0--2--0---------
    2)--2/3----------3------

    1)-------0--2---3p2---
    2)--2/3--------------3-

    1)-------0--------------
    2)--2/3--2--2--3------

    เทคนิค* จับ คอร์ดDประกอบการเล่น ทำให้เท่ไปอีกแบบ ครับ


    แน่ะนำ* พยายามแกะเพลง ให้นิ้วออกมาดูสวยงาม จะทำให้ดูเท่มากขึ้น ครับ

    ปล.อันนี้ลองเล่นของข้างบนมา ประกอบกับจำเพลงได้เล็กน้อย แต่ไม่ได้ทดลองเล่นกับฟังเพลงจิงๆ แต่คิดว่าเสียงคงออกมาเหมือน นะ ทดลองส่งมาให้ครั้งแรก
  • รักโปเตโต้
    Guest
  • 15 ธ.ค.2550,21:32น.


    เราเล่นแบบนี้ง่ะ ขึ้นมานิสๆให้ดูนะสนใจแอ้ดมาเน้ออ ~
    D
    1--------------1--2---1h0--
    2-----3-----------0---------3 เราเล่นได้ทั้งเพลงสนใจแอ้ดมาละกานไม่ก้ทิ้งข้อความไว้ในเวบ
    3-----2----------------------- ละกาน .......... !!!
    4--0------0------------------
    5------------------------------
    6------------------------------
  • รักโปเตโต้
    Guest
  • 15 ธ.ค.2550,21:36น.


    แก้หน่อย ๆ -*-
    ตรง1h0 อะ ให้เอานิ้วเกี่ยวสายเอานะ
    D
    1--------------1--2---1h0-- <<< ตงนี้อ้ะแก้เปนเกี่ยวสายเอานะเราเขียนไม่ถูก ..
    2-----3-----------0---------3
    3-----2-----------------------
    4--0------0---------0--------
    5------------------------------
    6------------------------------
  • รักโปเตโต้
    Guest
  • 15 ธ.ค.2550,21:38น.


    + + ขอแก้อีกรอบบบบ

    D
    1--------------0--2---1h0-- อย่าลืมเกี่ยวนะตรง1h0อะเราไม่รุว่าเกี่ยวสายเขียนไง
    2-----3-----------0---------3 แก้แล้วอันนี้100%
    3-----2-----------------------
    4--0------0---------0--------
    5------------------------------
    6------------------------------
1

ขอเชิญร่วมแสดงความคิดเห็นครับ

คลิกที่รูป เพื่อแทรกรูปลงในข้อความ
  • Member :
    username
    password
  • Not a member :
    name
    email