Loading

คอร์ดเพลง รักภาษาอะไร

ไอ-เบบี้ (I-babie)

อัพโหลดคลิปเพลงนี้ที่คุณ ร้อง/เล่น ด้วยตัวคุณเอง ได้แล้ววันนี้
ระหว่างการทดสอบระบบหากพบข้อผิดพลาด กรุณาแจ้งที่นี่
ลืม ลืมแล้วว่ากี่ครั้ง 
ที่เธอทำให้ช้ำให้ฉันเสียน้ำตา
เจ็บมันเจ็บเสียมากกว่า
เมื่อมองความเฉยชา อยู่บนใบหน้าเธอ
เหงา เงียบงันและเหน็บหนาว
เดียวดายและปวดร้าว เท่าไรยังต้องเจอ
รัก จากปากคำของเธอ
กับสิ่งที่ฉันเจอ เคยตรงกันบ้างไหม
*รักกันแล้วต้องมีน้ำตา
แบบนี้รักภาษาอะไร
ไม่มีคนรักหน้าไหนเค้าทำกัน
รักที่ให้กันแต่น้ำตาอย่างที่เธอมีให้ฉัน
ยังเรียกว่ารักได้อีกหรือเธอ
ท้อยิ่งนานก้อยิ่งท้อ
และคงไม่อยู่รอให้เธอเป็นคนลา
ยอม ยอมไปดีซะกว่า
ต้องอยู่กับน้ำตาที่นับวันยิ่งไหล
(*)

(*)

ป.ล.โพสเพลงให้แล้วน๊า แกงคอร์ดให้หน่อยดิ
ส่งเพลงนี้ให้เพื่อน
วันที่โพสต์ : 17 ก.ค.2548,21:54น. 203.113.71.71
จำนวนผู้ชม : 61045 คน / แสดงความคิดเห็น : 122 ครั้ง
โพสต์โดย


จาก: ยูกิ
เข้าร่วม: 9 ปีก่อน
เพลง: 0
โพสต์: 6
เพลงแนะนำ
เพลงฮิต
เลือกแสดงเฉพาะ :

  • คนน่ารักที่สุดในเอเชีย เด็กสงขลาจ้า
    Guest
  • 17 ก.ย.2548,21:47น.
    F                    AM
    
    ลืม ลืมแล้วว่ากี่ครั้ง
    DM G C
    ที่เธอทำให้ช้ำให้ฉันเสียน้ำตา
    F AM
    เจ็บมันเจ็บเสียมากกว่า
    DM G
    เมื่อมองความเฉยชา อยู่บนใบหน้าเธอ
    F AM
    เหงา เงียบงันและเหน็บหนาว
    DM G C
    เดียวดายและปวดร้าว เท่าไรยังต้องเจอ
    F AM
    รัก จากปากคำของเธอ
    DM G
    กับสิ่งที่ฉันเจอ เคยตรงกันบ้างไหม
    F
    *รักกันแล้วต้องมีน้ำตา
    EM
    แบบนี้รักภาษาอะไร
    DM G C
    ไม่มีคนรักหน้าไหนเค้าทำกัน
    F EM AM
    รักที่ให้กันแต่น้ำตาอย่างที่เธอมีให้ฉัน
    DM G C
    ยังเรียกว่ารักได้อีกหรือเธอ
    F AM
    ท้อยิ่งนานก้อยิ่งท้อ
    DM G C
    และคงไม่อยู่รอให้เธอเป็นคนลา
    F AM
    ยอม ยอมไปดีซะกว่า
    DM C
    ต้องอยู่กับน้ำตาที่นับวันยิ่งไหล

    อัพเดด คอร์ดให้ค่ะ เห็นคนนั้นไม่อัพเดทเลยอัพให้คร่า
  • คนน่ารักที่สุดในเอเชีย เด็กสงขลาจ้า
    Guest
  • 17 ก.ย.2548,21:47น.
    F                    AM
    ลืม ลืมแล้วว่ากี่ครั้ง
    DM G C
    ที่เธอทำให้ช้ำให้ฉันเสียน้ำตา
    F AM
    เจ็บมันเจ็บเสียมากกว่า
    DM G
    เมื่อมองความเฉยชา อยู่บนใบหน้าเธอ
    F AM
    เหงา เงียบงันและเหน็บหนาว
    DM G C
    เดียวดายและปวดร้าว เท่าไรยังต้องเจอ
    F AM
    รัก จากปากคำของเธอ
    DM G
    กับสิ่งที่ฉันเจอ เคยตรงกันบ้างไหม
    F
    *รักกันแล้วต้องมีน้ำตา
    EM
    แบบนี้รักภาษาอะไร
    DM G C
    ไม่มีคนรักหน้าไหนเค้าทำกัน
    F EM AM
    รักที่ให้กันแต่น้ำตาอย่างที่เธอมีให้ฉัน
    DM G C
    ยังเรียกว่ารักได้อีกหรือเธอ
    F AM
    ท้อยิ่งนานก้อยิ่งท้อ
    DM G C
    และคงไม่อยู่รอให้เธอเป็นคนลา
    F AM
    ยอม ยอมไปดีซะกว่า
    DM C
    ต้องอยู่กับน้ำตาที่นับวันยิ่งไหล

    อัพเดด คอร์ดให้ค่ะ เห็นคนนั้นไม่อัพเดทเลยอัพให้คร่า
  • hadder
    Guest
  • 9 ต.ค.2548,18:57น.
    1)-------------------------------------------------------------------------------------------
    2)--8/10--8-10-------------------------------------17---------------------------------
    3)------------------10-10-12-10----/17-17-17-----17----17-15/17-15-15---

    1)------------------------------------------------------------------------------------------
    2)------------------------------------------------------------------------------------------
    3)--14--12/14-12-12-9-10--10-12/17-------------------------------------------

    ขอบอกว่าผม มั่ว น่ะ
  • 4xzz
    Guest
  • 15 ต.ค.2548,19:01น.
               F

    *รักกันแล้วต้องมีน้ำตา

    Em7

    แบบนี้รักภาษาอะไร

    Dm7 G C

    ไม่มีคนรักหน้าไหนเค้าทำกัน

    F Em7 *

    รักที่ให้กันแต่น้ำตาอย่างที่เธอมีให้ฉัน

    Dm7 G C
    ยังเรียกว่ารักได้อีกหรือเธอ


    * ตรงนี้ ไม่รู้ว่าคอร์ดไร แต่จับงี้

    นิ้วชี้ วางไว้ที่ สาย 2 เฟรท 1
    นิ้วนาง ที่ สาย 1 เฟรท 3

    น่าจะไช่


  • โด่ง Cha-Ba
    Guest
  • 9 พ.ย.2548,13:07น.
    เพลงนี้เราทดสายเล่นนะครับ เลยแกะเป็น แอฟเมเจอร์ ลองดูเอา

    Intro:Bb/Am/Gm C/F
    1)------------------------------------------12--------------------------------------------------------
    2)10-8-10------------------13-13-13-----13-13-13-111-11-10-10-8-----8---------13-
    3)-----------10-10-12-10------------------------------------------------------10---10-14-----

    ถ้าตั้งสายตรง A=440Hz ก็เลื่อนขึ้น 1เสียงนะ

    Solo:
    1)--------------------------------------------------------------------------------------------------------
    2)-13-15-15-15-11-10-11-10--------------------------------------------------------------------
    3)------------------------------------10-12-10-14-14-12-10-----------------9-10----9-10----
    4)-------------------------------------------------------------------12-10-12-12------10-----------
    ******************
    1)------------------------------------------------12-13-----------I
    2)-----------------------10-11-13-----13-15-------------------I
    3)------------9-10-12---------------------------------------------I
    4)-8-10-12--------------------------------------------------------I

    ประมาณนี้อะอันนี้เป็นโน้ตสดๆนะ สำเนียงลองไปแกะดูเอง

    ส่วน Solo Outtro น้าจะคล้ายๆ intro นะ

1

ขอเชิญร่วมแสดงความคิดเห็นครับ

คลิกที่รูป เพื่อแทรกรูปลงในข้อความ
  • Member :
    username
    password
  • Not a member :
    name
    email