Loading

คอร์ดเพลง รักแท้

อาร์มแชร์ (Armchair)

อัพโหลดคลิปเพลงนี้ที่คุณ ร้อง/เล่น ด้วยตัวคุณเอง ได้แล้ววันนี้
ระหว่างการทดสอบระบบหากพบข้อผิดพลาด กรุณาแจ้งที่นี่
ชื่อเพลง/Title : รักแท้
อัลบัม/Album : Spring
ศิลปิน/Artist : Armchair

อยู่กับตัวเองในวันที่เงียบเหงา ฉันเฝ้ามองเห็นผู้คน
ที่คอยให้ไออุ่นกัน
อยากจับมือใครก็มีแต่ตัวฉัน เหมือนเดิมๆ ทุกๆ วัน
ฉันนั้นแทบขาดใจ

* ทุกครั้งยังบอกตัวเอง หากแม้นมีใครที่เดินเข้ามา
มาเติมสิ่งที่ขาดหาย
ฉันนั้นจะเก็บรักษา และขอสัญญาจะนานเท่าไหร่
ฉันจะไม่เปลี่ยนไป

** จะมีทางไหนที่ทำให้ฉันค้นพบ…คนดีของหัวใจ
ได้เจอกับใครที่ฉันรัก
อาจเพียงสักครั้งที่เราได้พบรักแท้ เท่านี้ก็เพียงพอ
กับคนหนึ่งคนที่อยากจะขอ

จะอยู่ในใจที่ยังจะตามหา ฉันว่ามันช่างมีค่า
และคุ้มที่จะเจอะเจอ
อาจมีคืนวันที่เป็นอยู่เสมอ ขอให้ฉันได้พบเธอ
รักแท้ที่ตามหา

(*,**,**)
ส่งเพลงนี้ให้เพื่อน
วันที่โพสต์ : 13 ก.ย.2547,18:30น.
จำนวนผู้ชม : 209257 คน / แสดงความคิดเห็น : 146 ครั้ง
โพสต์โดย


จาก: พ่อมดขาว
Guest
เพลงแนะนำ
เพลงฮิต
เลือกแสดงเฉพาะ :

  • ArmNo
    Guest
  • 19 ก.ย.2547,15:35น.
    F / E / D / Bb รึเปล่าไม่รู้นะครับ
    
    แกะจากเสียงเบสนะ

    ปล.ผมเพิ่งมา
    ((อัพเดทคอร์ดกีต้าร์))
  • ArmNo
    Guest
  • 19 ก.ย.2547,15:35น.
    F / E / D / Bb รึเปล่าไม่รู้นะครับ
    แกะจากเสียงเบสนะ

    ปล.ผมเพิ่งมา
    ((อัพเดทคอร์ดกีต้าร์))
  • ArmNo
    Guest
  • 20 ก.ย.2547,19:59น.
    ลองเปลี่ยน Am เป็น A7 ดูครับลองๆดู
    ((อัพเดทคอร์ดกีต้าร์))
  • SnowMan
    Guest
  • 25 ก.ย.2547,07:19น.
    รักแท้ : Armchair

    Intro: F C Dm Bb (2times)

    F C Dm Bb
    อยู่กับตัวเองในวันที่เงียบเหงา ฉันเฝ้ามองเห็นผู้คน ที่คอยให้ไออุ่นกัน
    F C Dm Bb
    อยากจับมือใครก็มีแต่ตัวฉัน เหมือนเดิมๆทุกๆวัน ฉันนั้นแทบขาดใจ

    Am7 Dm7 C Bb C
    * ทุกครั้งยังบอกตัวเอง หากแม้นมีใครที่เดินเข้ามา มาเติมสิ่งที่ขาดหาย
    Am7 Dm7 C Bb C
    ฉันนั้นจะเก็บรักษา และขอสัญญาจะนานเท่าไหร่ ฉันจะไม่เปลี่ยนไป

    F Am7 Dm7 F7 Bb Gm C
    ** จะมีทางไหนที่ทำให้ฉันค้นพบคนดีของหัวใจ ได้เจอกับใครที่ฉันรอ
    F Am7 Dm7 F7 Bb Gm C
    อาจมีสักครั้งที่เราได้พบรักแท้เท่านี้ก็เพียงพอ กับคนหนึ่งคนที่อยากจะขอ

    Instru: F Am7 Dm7 F7 Bb Gm C (2times)

    F C Dm Bb
    สิ่งหนึ่งในใจที่ยังจะตามหา ฉันว่ามันช่างมีค่า และคุ้มที่จะเจอะเจอ
    F C Dm Bb
    อาจเปลี่ยนคืนวันที่เป็นอยู่เสมอ ขอให้ฉันได้พบเธอ รักแท้ที่ตามหา

    (ซ้ำ *,**,**)

    Instru: F Am7 Dm7 F7 Bb Gm C (2times) Fmaj7


    เอามาจากอีกกระทู้อีกทีนะ
    ((อัพเดทคอร์ดกีต้าร์))
  • Phemyos
    Guest
  • 29 มี.ค.2548,01:25น.
    รักแท้ Armchair

    INTRO: /Fsus2/C/Dm/Bb/(2 Times)
    Fsus2 C
    อยู่กับตัวเองในวันที่เงียบเหงา
    Dm Bb
    ฉันเฝ้ามองเห็นผู้คน ที่คอยให้ไออุ่นกัน
    Fsus2 C
    อยากจับมือใคร ก็มีแต่ตัวฉัน
    Dm Bb
    เหมือนดังเดิมทุกๆ วัน ฉันนั้นแทบขาดใจ
    Am Dm
    * ทุกครั้งยังบอกตัวเอง
    C Bb
    หากแม้นมีใครที่เดินเข้ามา
    Gm C
    มาเติมสิ่งที่ขาดหาย
    Am Dm
    ฉันนั้นจะเก็บรักษา
    C Bb
    และขอจะสัญญาว่านานเท่าไหร่
    Gm
    ฉันจะไม่เปลี่ยนไป
    F A Dm F7 Bb
    ** จะมีทางไหนที่ทำให้ฉันค้นพบ คนดีของหัวใจ
    Gm C
    ได้เจอคนที่ฉันรอ
    F A Dm F7 Bb
    อาจเพียงสักครั้งที่เราได้พบรักแท้ เท่านี้ก็เพียงพอ
    Gm C F
    กับคนหนึ่งคนที่อยากจะขอ
    SOLO: /F A/Dm C/Bb/Gm C/(2 Times)
    Fsus2 C
    สิ่งหนึ่งในใจที่ยังจะตามหา
    Dm Bb
    ฉันว่ามันช่างมีค่า และคุ้มที่จะเจอะเจอ
    Fsus2 C
    อาจเปลี่ยนคืนวันที่เป็นอยู่เสมอ
    Dm Bb
    ขอให้ฉันได้พบเธอ รักแท้ที่ตามหา

    (ซ้ำ *,**,**)
    SOLO: /F A/Dm C/Bb/Gm C/(2 Times)/Gmaj7/
  • golf
    Guest
  • 30 มี.ค.2548,11:12น.
    ช่วยอธิบายหน่อยนะครับเกียวับแทบเป็นไงอะงง  ใช้ตรงนี้อะปะ
    ท่อน Intro คับ
    1.------------------11/12/11----------------------
    2.--9-9-5-7-9-9--------------9-5-7-9-7-5-7-5-
    3.-----------------------------------------------------
    4.-----------------------------------------------------
    5.-----------------------------------------------------
    6.-----------------------------------------------------
    เล่นแค่รอบเดียวน๊ะคับ เพราะเพลงรักแท้ Intro แค่รอบเดียว
    ถ้าใช่แล้วมันเล่นไงครับ เมลมาบอกหน่อยนะครับ golfdeddeehotmail.com
  • เด๊ะ
    Guest
  • 31 มี.ค.2548,22:16น.
    รักแท้
    Armchair

    Intro:F/Fmaj7/Dm/Bb
    F/Fmaj7onE/Dm/Bb The guitar express

    F Fmaj7onE Dm Bb
    อยู่กับตัวเองในวันที่เงียบเหงา ฉันเฝ้ามองเห็นผู้คน ที่คอยให้ไออุ่นกัน
    F Fmaj7onE Dm Bb The guitar express
    อยากจับมือใครก็มีแต่ตัวฉัน เหมือนเดิมๆ ทุกๆ วัน ฉันนั้นแทบขาดใจ

    Am Dm C Bb Gm C
    * ทุกครั้งยังบอกตัวเอง หากแม้นมีใครที่เดินเข้ามา มาเติมสิ่งที่ขาดหาย
    Am Dm C Bb Gm C The guitar express
    ฉันนั้นจะเก็บรักษา และขอสัญญาจะนานเท่าไหร่ ฉันจะไม่เปลี่ยนไป

    F A Dm Cm Bb Gm C
    ** จะมีทางไหนที่ทำให้ฉันค้นพบคนดีของหัวใจ ได้เจอกับใครที่ฉันรัก The guitar express
    F A Dm Cm Bb Gm C F
    อาจเพียงสักครั้งที่เราได้พบรักแท้ เท่านี้ก็เพียงพอ กับคนหนึ่งคนที่อยากจะขอ

    Intru:F A/Dm C/Bb/Gm C(2time) The guitar express

    F Fmaj7onE Dm Bb
    จะอยู่ในใจที่ยังจะตามหา ฉันว่ามันช่างมีค่า และคุ้มที่จะเจอะเจอ
    F Fmaj7onE Dm Bb The guitar express
    อาจมีคืนวันที่เป็นอยู่เสมอ ขอให้ฉันได้พบเธอ รักแท้ที่ตามหา

    (*,**,**)
    The guitar express
    Intru:F A/Dm C/Bb/Gm C(2time)Fmaj7
  • IMAX
    Guest
  • 1 เม.ย.2548,17:32น.
    ผมว่าของคุณ ลองดู เหมือนสุด ผมเอามาปรับให้ดูง่ายขึ้นนะครับ
    1)-------------------------------------12-->13-->12(แบบว่าไสลด์กลับอ่ะ)
    2)--10--10---------------10--10----------------------10--10--------------10--8
    3)-------------10-->12--------------------------------------------10-->12----------10-->12

    ท่อน intro
    ต่อไปเป็น solo

    1)-------------------------------------------------------12->13->12(แบบว่าไสลด์กลับอ่ะ)----------
    2)--10--10--10--10-------------10---10-10-10-------------------10---10-10-10-10-10-10
    3)-----------------------10-->12-----------------------------------------------------------------------

    1))---------------------------------------------------------------------------------12->13->12(แบบว่าไสลด์กลับอ่ะ)----------
    2)-10->8---------------------10--10--10--10-------------10---10-10-10-------------------10----10-10-10-10-10-10-10-->8
    3)----------10->12-10-12----------------------10-->12-------------------------------------------------------------------------------------10-9-10


    จบครับ ตรงเผงเลย
  • มะแม้ว
    Guest
  • 9 ก.ค.2548,11:30น.
    1-----------------------------------------12--13-------------------------
    2--10---/10----6---8->10---/10---13-(13)--10---/10---6----8-->10----6---8---11------
    3--10---/10----5---9->10---/10---------------10---/10---5----9-->10----5---9---12------


    Intro คับ ใช้กีต้าไฟฟ้าแล้วใช้แอ็บเฟ็ก คับ
  • ซักอย่าง
    Guest
  • 26 ก.ค.2548,00:02น.
    คุน IMAX ยืมหน่อยน้าค๊าบขี้เกียดพิมขอแก้ไรนิดหน่อย 
    ผมว่าของคุณ ลองดู เหมือนสุด ผมเอามาปรับให้ดูง่ายขึ้นนะครับ
    1)-------------------------------------12-->13-->12(แบบว่าไสลด์กลับอ่ะ)
    2)--10--10---------------10--10----------------------10--10--------------10--8
    3)-------------10-->12--------------------------------------------10-->12----------10-->12

    ท่อน intro
    ต่อไปเป็น solo

    1)-------------------------------------------------------12->13->12(แบบว่าไสลด์กลับอ่ะ)----------
    2)--10--10--10--10-------------10---10-10-10-------------------10---10-10-10-10-10-10
    3)-----------------------10-->12-----------------------------------------------------------------------

    1))---------------------------------------------------------------------------------12->13->12(แบบว่าไสลด์กลับอ่ะ)----------
    2)-10->8---------------------10--10--10--10-------------10---10-10-10-------------------10----10-10-10-10-10-10-10-->8
    3)----------10->12-10-12----------------------10-->12-------------------------------------------------------------------------------------10-9^(แบบว่าดันสายขึ้น)
    น่าจาเวิ้กก่านา
  • Bl@ck
    Guest
  • 2 ส.ค.2548,12:06น.
    F               A            Dm     F7            Bb
    อาจเพียงสักครั้งที่เราได้พบรักแท้ เท่านี้ก็เพียงพอ
    Gm C F
    กับคนหนึ่งคนที่อยากจะขอ

  • 7 ก.ย.2548,21:27น.
    ดีดแบบนี้ง่ายสุดฮะ
    /F/Fmaj7/Dm/Bb 2time
    F Fmaj7 Dm Bb
    อยู่กับตัวเองในวันที่เงียบเหงาฉันเฝ้ามองเห็นผู้คนที่คอยให้ไออุ่นกัน
    F Fmaj7 Dm Bb
    อยากจับมือใครก็มีแต่ตัวฉันเหมือนเดิมๆทุกๆวันฉันนั้นแทบขาดใจ
    Am Dm C Bb Gm C
    ทุกครั้งยังบอกตัวเองหากแม้นมีใครที่เดินเข้ามามาเติมสิ่งที่ขาดหาย
    Am Dm C Bb Gm C
    ฉันนั้นจะเก็บรักษาและขอสัญญาจะนานเท่าไหร่ฉันจะไม่เปลี่ยนไป
    F A7 Dm Bb Gm C
    จะมีทางไหนที่ทำให้ฉันค้นพบคนดีของหัวใจได้เจอกับใครที่ฉันรอ
    F A Dm Bb Gm C F
    อาจเพียงสักครั้งที่เราได้พบรักแท้เท่านี้ก็เพียงพอกับคนหนึ่งคนที่อยากจะขอ
    /F A7 / Dm GM C
    /F A7 / Dm GM C Fmaj7
    F Fmaj7 Dm Bb
    สิ่งหนึ่งในใจที่ยังจะตามหาฉันว่ามันช่างมีค่าและคุ้มที่จะเจอะเจอ
    F Fmaj7 Dm Bb
    อาจเปลี่ยนคืนวันที่เป็นอยู่เสมขอให้ฉันได้พบเจอรักแท้ที่ตามหา

  • เต๋า สมบูณ แบบ
    Guest
  • 5 ต.ค.2548,10:56น.

    1 10/10/10/10---8-10-101010-12-13-12 -10-10---8-10-----8------8
    2 10-----------------------------------------10-------------10-----10
  • New
    Guest
  • 28 ต.ค.2548,21:43น.
    ---------------------------------------------------10-----------------10---------------------10-----------------------------------10-----------------10-----------------------10------------------10----------------------------------10----------------10-----------------------10-----------------10--------------------------------------10------------------------10-----------------------10-----------------10--------------------------------------10-----------------------10-------------------------10------------------10--------------------------------------10--------------------------------------------------------------------------------------
  • นิว กีต้าไฟ
    Guest
  • 28 ต.ค.2548,21:46น.
    รักแท้

    3|--11--11--7--9--11--11--14--16--11--11--7--9--9>11--9--7--9

    3|--11--11--11--7--9--11-----11--11--11--14--16-14-11(8)--11>9-9-7-9-7-9>11--11--11--11-14-16-14-11-11-11-7-9-9>11-11(8)-11>9-9-7-9>7

    3|--11--11--11--7--9--11-----11--11--11--14--16-14-11(8)--11>9-9-7-9-7-9>11--11--11--11-7-9-9>11-11-11-11-14-16-14-11(8)-11>9-9-7----7
    4|------------------------------------------------------------------------------------------------------------------------------------------------------------------------------------11
  • bank
    Guest
  • 15 ม.ค.2549,23:59น.
    1)-------------------------------------12-->13-->12(แบบว่าไสลด์กลับอ่ะ)
    2)--10--10---------------10--10----------------------10--10--------------10--8---------------8
    3)-------------10-->12--------------------------------------------10-->12----------10-->12--

    ท่อน intro
    ต่อไปเป็น solo

    1)-------------------------------------------------------12->13->12(แบบว่าไสลด์กลับอ่ะ)----------
    2)--10--10--10--10-------------10---10-10-10-------------------10---10-10-10-10-10-10
    3)-----------------------10-->12-----------------------------------------------------------------------

    1))---------------------------------------------------------------------------------12->13->12(แบบว่าไสลด์กลับอ่ะ)----------
    2)-10->8---------------------10--10--10--10---------------10---10-10-10-------------------10----10-10-10-10-10-10-10-->8
    3)----------10->12-10-12----------------------10-->12>10-------------------------------------------------------------------------------------10-9^10--9(แบบว่าดันสายขึ้น)
  • Springsong
    Guest
  • 22 พ.ค.2549,22:37น.
    ไม่แนะนำให้ใช้ C ต่อหลัง Bb คับไม่ช่วยให้แน่นขึ้นเลยยิ่งทำให้เสียงเพี้ยนคับ    
  • Strike Freedom
    Guest
  • 19 พ.ย.2550,18:47น.


    1) ----------------------------------------------------------------------------------------------------
    2) ---------------------------------------------------------------10----10----10----10--11--10
    3) -10-----10-----10-----10-----9------9--------10--9----------------------------------------
    4) -----10-----10-----10-----10-----10-----10----------------12----12---12---------------


    1)--------------------------------12-13
    2) 10--10-----------10--10------------10--10-----------
    3)-----------10--12--------------------------------10--12--14--12--10--12

    Introงับ อันบนคือตอนที่เพลงมันเบาๆอ่าแล้วต่อด้วยอันล่าง
    อันล่างก็ที่แต่ละคนโพสต์กัน ลองเล่นดูงับ
  • 22 ก.ย.2557,01:35น.
    INTRO: /Fsus2/C/Dm/Bb/(2 Times)
    
    Fsus2       
                  C                                     
    อยู่กับตัวเองในวันที่เงียบเหงา
                          Dm      Bb                                        
    ฉันเฝ้ามองเห็นผู้คน ที่คอยให้ไออุ่นกัน
    Fsus2                        C
    อยากจับมือใคร ก็มีแต่ตัวฉัน
                              Dm  Bb        
    เหมือนดังเดิมทุกๆ วัน ฉันนั้นแทบขาดใจ
    
    Am                      Dm
    * ทุกครั้งยังบอกตัวเอง
             C           Bb   
    หากแม้มีใครที่เดินเข้ามา
        Gm        C        
    มาเติมสิ่งที่ขาดหาย
    Am                  Dm  
    ฉันนั้นจะเก็บรักษา
           C                    Bb
    และขอสัญญาจะนานเท่าไหร่
    Gm
    ฉันจะไม่เปลี่ยนไป
    
    F                A             Dm   F7               Bb  
    ** จะมีทางไหนที่ทำให้ฉันค้นพบ คนดีของหัวใจ
        Gm      C
    ได้เจอคนที่ฉันรอ
    F                  A            Dm    F7            Bb            
    อาจเพียงสักครั้งที่เราได้พบรักแท้ เท่านี้ก็เพียงพอ
        Gm               C         F
    กับคนหนึ่งคนที่อยากจะขอ
    
    SOLO: /F A/Dm C/Bb/Gm C/(2 Times)
    Fsus2    
                    C
    สิ่งหนึ่งในใจที่ยังจะตามหา
                       Dm        Bb   
    ฉันว่ามันช่างมีค่า และคุ้มที่จะเจอะเจอ
    Fsus2                              C
    อาจเปลี่ยนคืนวันที่เป็นอยู่เสมอ
                     Dm       Bb
    ขอให้ฉันได้พบเธอ รักแท้ที่ตามหา
                     
                   (ซ้ำ *,**,**)
    
    SOLO: /F A/Dm C/Bb/Gm C/(2 Times)/Gmaj7/
1

ขอเชิญร่วมแสดงความคิดเห็นครับ

คลิกที่รูป เพื่อแทรกรูปลงในข้อความ
  • Member :
    username
    password
  • Not a member :
    name
    email