Loading

คอร์ดเพลง รับได้ทุกอย่าง

แคลช (Clash)

อัพโหลดคลิปเพลงนี้ที่คุณ ร้อง/เล่น ด้วยตัวคุณเอง ได้แล้ววันนี้
ระหว่างการทดสอบระบบหากพบข้อผิดพลาด กรุณาแจ้งที่นี่

Artist : Clash
Album : Album One

Intro : G/A/Em ( ซ้ำ 2 ครั้ง )

C D B7 C D B7
รู้อยู่แก่ใจ ว่าเธอไปไหนมา เห็นอยู่ตำตา ว่าเธอไปกับเขา
G A B7 C D Em
นับได้เกือบเดือนที่ฉัน ไม่เจอะเธอแม้เงา รู้หรือเปล่าว่าฉันคิดมากเท่าใด
G/A/Em D
ฮู...................

C D B7 C D B7
แค่หลับตาลงก็พอนึกภาพออก ไม่บอกก็รู้ว่าเธอทำอะไร
G A B7 C D Em
เมื่ออยู่กับเขาเธอเองคงจะใจถึงใจ คิดเมื่อไหร่มันเหมือนมีดกรีดทุกที

G A B7 Em G A
* แต่กลับมาเถอะที่รัก ถ้าวันนี้เขาไม่แคร์ จะกลับมาอย่างคนแพ้
C D C D B7 C D B7
ก็ไม่ต้องลำบากใจ จะไม่เอ่ยถามสักคำ จะไม่ตอกย้ำซ้ำเติมหัวใจ
C D B7 Em F D G
จะโอบกอดเธอแม้ว่าเธอเคยกอดใคร ไม่เป็นไร ฉันรับได้ทุกอย่าง

Instru : G/A/Em

C D B7 C D B7
ฉันจับมือเธอ ด้วยมือที่ชุ่มเหงื่อ ไม่อยากจะคิด ว่าเหลือสักแค่ไหน
G A B7 C D Em
ทุกสิ่งที่ฉันได้เคย เฝ้าถนอมด้วยหัวใจ เธอคงให้ ให้เขาไปหมดแล้ว
G/A/Em G/A/Em
ฮู...............ฮู............ฮู..............ฮู..............

Instru : A/C/D/Em/G/A/C/D/Em

( ซ้ำ * )

F D G
ไม่เป็นไร ฉันรับได้ทุกอย่าง
ดาวน์โหลด Full Song
กด *424243010556584
กด *424243010556584
ดาวน์โหลด Truetone
กด *424218010556584
กด *424218010556584
กด *424218010556584
ดาวน์โหลด Poly
กด *424214010556584
กด *424214010556584
กด *424214010556584
ดาวน์โหลด Mono
กด *424211010556584
กด *424211010556584
กด *424211010556584
* อัตราค่าบริการดาวน์โหลด Fullsong, Truetone, Poly, Mono : 35 บาท/เพลง
ส่งเพลงนี้ให้เพื่อน
วันที่โพสต์ : 2 มี.ค.2546,18:16น.
จำนวนผู้ชม : 215029 คน / แสดงความคิดเห็น : 84 ครั้ง
โพสต์โดย


จาก: เว็บมาสซาเตอร์
เข้าร่วม: 9 ปีก่อน
เพลง: 0
โพสต์: 217
เพลงแนะนำ
เพลงฮิต
เลือกแสดงเฉพาะ :

  • aun1
    Guest
  • 22 มี.ค.2548,15:53น.
    อินโทรของจิงอย่างนี้ต่างหากแกะมามั่วทั้งนั้นไม่เชื่อไปดูในมิวสิคเพลงนี้สิตรงทุกอย่าตอแฮ็คมันดีดเราดูรอบเดียวก้อเล่นได้แล้ว
    

    3/ ----------2s4s7- 6---2--4--0--------------เล่นอย่านี้2รอบเองไม่เหมื่อนให้เตะเลย

  • aun1
    Guest
  • 22 มี.ค.2548,15:53น.
    อินโทรของจิงอย่างนี้ต่างหากแกะมามั่วทั้งนั้นไม่เชื่อไปดูในมิวสิคเพลงนี้สิตรงทุกอย่าตอแฮ็คมันดีดเราดูรอบเดียวก้อเล่นได้แล้ว

    3/ ----------2s4s7- 6---2--4--0--------------เล่นอย่านี้2รอบเองไม่เหมื่อนให้เตะเลย

  • เด็กอุบล(จิ้ง)มือใหม่
    Guest
  • 30 มี.ค.2548,09:01น.
    อันนี้แก้ใหม่นิดครับ

    Intro รับได้ทุกอย่าง Clash

    1)-------------------------------------------------------------------------------------------

    2)-------------------------------------------------------------------------------

    3)---2/4-----/7--------6----------2------/4----0----(2times)--------------------------------------

    SOLO
    G A Em G
    1)-------------------------------------------------------------------------------------------

    2)----/3-----------------/5/3----/5/3------------------------------------3------3---2-

    3)---------------/7---------/4/2-----/4/2--/4/2/2/4/2-------------------------------------------

    4)-/5-------------------------------------------/4/2/2/4/2----5/4-------/5--------/5--------/5--

    5)------------------------------------------------------------------------------------------

    6)-------------------------------------------------------------------------------------

    E A C D
    1)-------------------------------------------------------------------------------------------

    2)-----------------------------------/55--5--53----------------------------------------

    3)------4-------4------4------4--------------------------5---4---5--4--5--4-----4--2--4--2--

    4)-/2------/2-----/2-------/2---------------------------------------------------------------------5--4---

    5)-------------------------------------------------------------------------------------------------------------

    6)-------------------------------------------------------------------------------------


    E A C D
    1)-------7------7--------7------7------7-----7-----/12--12--12--12--14----10-----------

    2)-/5------/5------5------5-------5------5------------------------------------12-----13-12-13-12

    3)-----------------------------------------------------------------------------------


    E G แต่กลับมาเถอะทีรัก..A...... G Em G A

    1)-------------------------------------------------------------------------------------------

    2)(12)--12-10-12-10-----------------------------------------/15--/15----------------

    3)------------------------------12--11-----12--11--12--14--------------------- 12-11--12--14--

    C D
    1)-------------------------------------------------------------------------------------------

    2)-----/17---17----15^----15-------------------------------------------------------------------

    คาดว่าแน่นอนนะคราบบบบบบบ
  • Ruj barbarain
    Guest
  • 6 เม.ย.2548,22:44น.
    intro  
    3)----4--7--6--2--4----4--7--6--2--4--4
    4)----------------------5---------------------

    ลองดูเหมือนโครต

  • Ruj barbarain
    Guest
  • 6 เม.ย.2548,22:45น.
    intro  
    3)----4--7--6--2--4----4--7--6--2--4--4
    4)----------------------5---------------------

    ลองดูเหมือนโครต
  • BaS
    Guest
  • 20 เม.ย.2548,01:12น.
    ถึงผู้ตอบที่5 ผมว่าของผมน่าจะชัวน้า
    Solo
    3------------9---------------------9-----------------------9------------------------9-----------
    4-----/7---------------/7-------------------/7-----------------------/7-----------------------------

    3-------12/14-----14---14-------14---12----------10----9-------9/10/9----9-7--9-7--9-7----

    2--------------12-------------12-------------12-----------12--------------12--------------12------
    3-----7/9------------7/9------------7/9-----------9--------------9----------------9-----------------

    2------15/17--17--17---------17-17/19-----15-----12---12/13/12----12----10---12--10-

    2-----8/7-----5--------------------------------------------------------------------

    ผมแกะเองนะครับ น่าจะชัวนะ มีไรเมล์มาคุยได้คับ ออนดึกๆ
  • บอส เองงับ
    Guest
  • 22 เม.ย.2548,21:10น.
    กำ ไม่อยากจะเกทับกัน แต่ solo ของผม ผมว่าถูกสุดแล้วนะ
    6)----------------------------------------------------------------------------------------------
    5)----------------------------------------------------------------------------------------------
    4)--2/9/2/9/2/9----------------------------------------------5-4-5-4------------------
    3)---------------------9-9-9-9p7-5-4h5-4h5-4--4-2-4-2-----------------------------
    2)------------------------------------------------------------------------------5/12/5/12-
    1)-----------------------------------------------------------------------------------------------

    ต่อๆๆ
    6)-----------------------------------------------------------------------------------------------
    5)-----------------------------------------------------------------------------------------------
    4)-----------------------------------------------------------------------------------------------
    3)--9----9----- 9------9-----------------------------------------------------------------------
    2)----12---12----12----12-------------------------------15--12h13-12h13-12-------
    1)--------------------------------12-12-12-12-12/14-------------------------------------

    ต่ออีกที ( ไม่จบสีกที )
    6)--------------------------------------------
    5)--------------------------------------------
    4)--------------------------------------------
    3)--------------------12-11-12-12/14--
    2)--12-10-12-10-------------------------
    1)--------------------------------------------
    ผมว่าน่าจะถูกที่สุดแล้วนะ ผิดตรงไหนอยากให้คนเก่งๆ แก้ให้ด้วย แต่ถ้าถูกดีแล้ว ชมได้มะว่า
  • คนหล่อ
    Guest
  • 17 พ.ย.2548,17:09น.
    1.----------------------------------------------------------------------------------------
    2.----------------------------------------------------------------------------------------
    3.----2/4------6/7----6------2----4---0--2--------ซ้ำอีกครั้ง
  • kh
    Guest
  • 6 มี.ค.2549,17:04น.
    รับได้ทุกอย่าง 
    Artist : แคลช (Clash)

    Title : รับได้ทุกอย่าง
    Artist : Clash
    Album : Album One

    Intro : G/A/Em ( ซ้ำ 2 ครั้ง )

    C D B7 C D B7
    รู้อยู่แก่ใจ ว่าเธอไปไหนมา เห็นอยู่ตำตา ว่าเธอไปกับเขา
    G A B7 C D Em
    นับได้เกือบเดือนที่ฉัน ไม่เจอะเธอแม้เงา รู้หรือเปล่าว่าฉันคิดมากเท่าใด
    G/A/Em D
    ฮู...................

    C D B7 C D B7
    แค่หลับตาลงก็พอนึกภาพออก ไม่บอกก็รู้ว่าเธอทำอะไร
    G A B7 C D Em
    เมื่ออยู่กับเขาเธอเองคงจะใจถึงใจ คิดเมื่อไหร่มันเหมือนมีดกรีดทุกที

    G A B7 Em G A
    * แต่กลับมาเถอะที่รัก ถ้าวันนี้เขาไม่แคร์ จะกลับมาอย่างคนแพ้
    C D C D B7 C D B7
    ก็ไม่ต้องลำบากใจ จะไม่เอ่ยถามสักคำ จะไม่ตอกย้ำซ้ำเติมหัวใจ
    C D B7 Em F D G
    จะโอบกอดเธอแม้ว่าเธอเคยกอดใคร ไม่เป็นไร ฉันรับได้ทุกอย่าง

    Instru : G/A/Em

    C D B7 C D B7
    ฉันจับมือเธอ ด้วยมือที่ชุ่มเหงื่อ ไม่อยากจะคิด ว่าเหลือสักแค่ไหน
    G A B7 C D Em
    ทุกสิ่งที่ฉันได้เคย เฝ้าถนอมด้วยหัวใจ เธอคงให้ ให้เขาไปหมดแล้ว
    G/A/Em G/A/Em
    ฮู...............ฮู............ฮู..............ฮู..............

    Instru : A/C/D/Em/G/A/C/D/Em

    ( ซ้ำ * )

    F D G
    ไม่เป็นไร ฉันรับได้ทุกอย่าง

  • กบบ้านไร่
    Guest
  • 11 ก.ย.2549,00:31น.
     รับได้ทุกอย่าง 
    Artist : แคลช (Clash)

    Title : รับได้ทุกอย่าง
    Artist : Clash
    Album : Album One

    Intro : G/A/Em ( ซ้ำ 2 ครั้ง )

    C D B7 C D B7
    รู้อยู่แก่ใจ ว่าเธอไปไหนมา เห็นอยู่ตำตา ว่าเธอไปกับเขา
    G A B7 C D Em
    นับได้เกือบเดือนที่ฉัน ไม่เจอะเธอแม้เงา รู้หรือเปล่าว่าฉันคิดมากเท่าใด
    G/A/Em D
    ฮู...................

    C D B7 C D B7
    แค่หลับตาลงก็พอนึกภาพออก ไม่บอกก็รู้ว่าเธอทำอะไร
    G A B7 C D Em
    เมื่ออยู่กับเขาเธอเองคงจะใจถึงใจ คิดเมื่อไหร่มันเหมือนมีดกรีดทุกที

    G A B7 Em G A
    * แต่กลับมาเถอะที่รัก ถ้าวันนี้เขาไม่แคร์ จะกลับมาอย่างคนแพ้
    C D C D B7 C D B7
    ก็ไม่ต้องลำบากใจ จะไม่เอ่ยถามสักคำ จะไม่ตอกย้ำซ้ำเติมหัวใจ
    C D B7 Em F D G
    จะโอบกอดเธอแม้ว่าเธอเคยกอดใคร ไม่เป็นไร ฉันรับได้ทุกอย่าง

    Instru : G/A/Em

    C D B7 C D B7
    ฉันจับมือเธอ ด้วยมือที่ชุ่มเหงื่อ ไม่อยากจะคิด ว่าเหลือสักแค่ไหน
    G A B7 C D Em
    ทุกสิ่งที่ฉันได้เคย เฝ้าถนอมด้วยหัวใจ เธอคงให้ ให้เขาไปหมดแล้ว
    G/A/Em G/A/Em
    ฮู...............ฮู............ฮู..............ฮู..............

    Instru : A/C/D/Em/G/A/C/D/Em

    ( ซ้ำ * )

    F D G
    ไม่เป็นไร ฉันรับได้ทุกอย่าง
  • น้องมิวครับ
    Guest
  • 24 พ.ย.2549,19:59น.
    Intro รับได้ทุกอย่าง			Clash

    1)-------------------------------------------------------------------------------------------

    2)-------------------------------------------------------------------------------

    3)---2/4-----/7--------6----------2------/4----0----(2times)--------------------------------------

    SOLO
    G A Em G
    1)-------------------------------------------------------------------------------------------

    2)----/3-----------------/5/3----/5/3------------------------------------3------3---2-

    3)---------------/7---------/4/2-----/4/2--/4/2/2/4/2-------------------------------------------

    4)-/5-------------------------------------------/4/2/2/4/2----5/4-------/5--------/5--------/5--

    5)------------------------------------------------------------------------------------------

    6)-------------------------------------------------------------------------------------

    E A C D
    1)-------------------------------------------------------------------------------------------

    2)-----------------------------------/55--5--53----------------------------------------

    3)------4-------4------4------4--------------------------5---4---5--4--5--4-----4--2--4--2--

    4)-/2------/2-----/2-------/2---------------------------------------------------------------------5--4---

    5)-------------------------------------------------------------------------------------------------------------

    6)-------------------------------------------------------------------------------------


    E A C D
    1)-------7------7--------7------7------7-----7-----/12--12--12--12--14----10-----------

    2)-/5------/5------5------5-------5------5------------------------------------12-----13-12-13-12

    3)-----------------------------------------------------------------------------------


    E G แต่กลับมาเถอะทีรัก..A...... G Em G A

    1)-------------------------------------------------------------------------------------------

    2)(12)--12-10-12-10-----------------------------------------/15--/15----------------

    3)------------------------------12--11-----12--11--12--14--------------------- 12-11--12--14--

    C D
    1)-------------------------------------------------------------------------------------------

    2)-----/17---17----15^----15-------------------------------------------------------------------

  • nook
    Guest
  • 20 ธ.ค.2550,17:26น.


    *******อยากได้โซโล่เอาแบบเหมือนมากๆอะแบบไม่มั่วนะด่วน******
    ----------------------------------------------------------------------------ข้างบนไม่เกี่ยวกะข้างล่างนะ



    3)---5>7-------7>10--------9--------5-----5>7---------3-----------5>7---------7>10-----------14-
    มั่งน่าจะถูกไปลองเล่นเหมือนดี
  • 24 พ.ย.2556,12:23น.
    รับได้ทุกอย่าง
    Intro:
    / C Dsus4 / Em / C Dsus4 / G /

    Em7 D
    รู้อยู่แก่ใจ ว่าเธอไปไหนมา
    G D Em
    เห็นอยู่ตำตา ว่าเธอไปกับเขา
    C D C Bm Em
    นับได้เกือบเดือน ที่ฉันไม่เจอะเธอแม้เงา
    C D Em Em7 A Em
    รู้หรือเปล่า ว่าฉันคิดมากเท่าใด ฮูว์

    Em7 D
    แค่หลับตาลง ก็พอนึกภาพออก
    G D Em
    ไม่บอกก็รู้ ว่าเธอทำอะไร
    C D C Bm Em
    เมื่ออยู่กับเขา เธอเองคงจะใจถึงใจ
    C D Em
    คิดเมื่อไหร่ มันเหมือนมีดกรีดทุกที

    Em Bm
    * แต่กลับมาเถอะที่รัก
    B Em
    ถ้าวันนี้เขาไม่แคร์
    G A
    จะกลับมาอย่างคนแพ้
    C D
    ก็ไม่ต้องลำบากใจ

    C D Em
    ** จะไม่เอ่ยถามซักคำ
    C D Em
    จะไม่ตอกย้ำ ซ้ำเติมหัวใจ
    C
    จะโอบกอดเธอ
    D Bm Em
    แม้ว่าเธอเคยกอดใคร
    F D G
    ไม่เป็นไร ฉันรับได้ทุกอย่าง

    Instrument:
    / C Dsus4 / Em7 /

    Em7 D
    ฉันจับมือเธอ ด้วยมือที่ชุ่มเหงื่อ
    G D Em
    ไม่อยากจะคิด ว่าเหลือสักแค่ไหน
    G D C Bm Em
    ทุกสิ่งที่ฉันได้เคยเฝ้าถนอมด้วยหัวใจ

    C D Em G A Em7
    เธอคงให้ ให้เขาไปหมดแล้ว ฮูว์

    Instrument:
    / G A / Em7 / A / C D / Em7 / Em7 / A / C D /
    / Em7 /

    Repeat * , **

    F D G
    ::ไม่เป็นไร ฉันรับได้ทุกอย่าง
1

ขอเชิญร่วมแสดงความคิดเห็นครับ

คลิกที่รูป เพื่อแทรกรูปลงในข้อความ
  • Member :
    username
    password
  • Not a member :
    name
    email