Loading

คอร์ดเพลง รูปชั่วตัวดำ

มอร์แกน

อัพโหลดคลิปเพลงนี้ที่คุณ ร้อง/เล่น ด้วยตัวคุณเอง ได้แล้ววันนี้
ระหว่างการทดสอบระบบหากพบข้อผิดพลาด กรุณาแจ้งที่นี่
Print
นานเท่าใด กว่าจะมีใครสักคน 
ช่วยมาปล่อยความสับสน ที่มีอยู่ในหัวใจ
นานเท่าใด กว่าจะมีสักหัวใจ
ให้โอกาสฉันได้ไหม คนหน้าตาไม่ดี
* ถึงไม่หล่อไม่ขาวไม่มีเสน่ห์ ไม่เทห์ไม่หน้าไว้ใจ
ถึงคารม มันอาจบ้านๆเกินไป
แต่จำไว้รักใครรักจริง
** คนรูปชั่วที่ตัวแสนดำ ไม่งามคล้ำใช่คนจัยร้าย
ถึงรูปชั่วก็มีหัวใจ ลองรักใคร...
รักใครรักจริง

นานเท่าใด กว่าจะมีคนเห็นใจ
ขอแค่เพียงรู้เอาไว้ ว่าไม่ใช่คนหลายใจ
นานเท่านาน ที่จะไม่ว่านเท่าใด
แต่ไม่เคยทำให้ ใครต้องมาเจ็บช้ำนำใจ

http://www.musicatm.com/thai/คอร์ดเพลง-รูปชั่วตัวดำ-มอร์แกน-7599.html
ส่งเพลงนี้ให้เพื่อน
วันที่โพสต์ : 20 ม.ค.2550,12:37น. 203.188.37.185
จำนวนผู้ชม : 106404 คน / แสดงความคิดเห็น : 88 ครั้ง
โพสต์โดย


จาก: เgod of death
เข้าร่วม: 7 ปีก่อน
เพลง: 0
โพสต์: 1
เพลงแนะนำ
เพลงฮิต
เลือกแสดงเฉพาะ :

  • เด็ก พ.ช.
    Guest
  • 21 ม.ค.2550,11:46น.
    Bm........F#m.........G............D..
    

    ประมาณนี้คับ
  • เด็ก พ.ช.
    Guest
  • 21 ม.ค.2550,11:46น.
    Bm........F#m.........G............D..

    ประมาณนี้คับ
  • ต้น มน. 555
    Guest
  • 7 ก.พ.2550,13:59น.
    Bm                      F#m
    นานเท่าใด กว่าจะมีใครสักคน
    G D
    ช่วยมาปล่อยความสับสน ที่มีอยู่ในหัวใจ
    Bm F#m
    นานเท่าใด กว่าจะมีสักหัวใจ
    G D
    ให้โอกาสฉันได้ไหม คนหน้าตาไม่ดี
    Bm F#m G D

    * ถึงไม่หล่อไม่ขาวไม่มีเสน่ห์ ไม่เทห์ไม่หน้าไว้ใจ

    Bm F#m
    ถึงคารม มันอาจบ้านๆเกินไป

    G A
    แต่จำไว้รักใครรักจริง

    D F#m G D
    ** คนรูปชั่วที่ตัวแสนดำ ไม่งามคล้ำใช่คนจัยร้าย

    Bm F#m G
    ถึงรูปชั่วก็มีหัวใจ ลองรักใคร...

    A D
    รักใครรักจริง
    Bm F#m
    นานเท่าใด กว่าจะมีคนเห็นใจ
    G D
    ขอแค่เพียงรู้เอาไว้ ว่าไม่ใช่คนหลายใจ
    Bm F#m
    นานเท่านาน ที่จะไม่ว่านเท่าใด
    G D
    แต่ไม่เคยทำให้ ใครต้องมาเจ็บช้ำนำใจ

    ( *,** )
  • -*-
    Guest
  • 27 ก.พ.2550,14:18น.

    Solo
    1-----------------------------
    2------------------------------
  • เด็กตรัง
    Guest
  • 4 มี.ค.2550,17:17น.
    Intro : Bm/F#m/G/Gm
    Bm/F#m/G/D
    Bm/F#m/G/D
    * Bm/F#m/G/D
    Bm/F#m/G/A
    ** D/A/G/D
    Bm/F#m/G/Gm
    เอาแค่ครึ่งเพลงก่อนแล้วว่างเมื่อไรจะมาต่อให้จบ.........
    เออ!แล้วก็มีอะไรจะบอกนิดนึงว่า........
    ร้องนำ/กีตาร์ ชื่อ พี่เทพ หรือ เราเรียกแกว่า น้าเทพ
    เป็นคนตรังนะเฟ้ย......( คนตรังก็ไม่ได้หมูนะค้าบ!!! )
  • Solazell หูเทพ(มือSolo ภูเก็ต)
    Guest
  • 6 มี.ค.2550,05:56น.

    ใครอยากได้ Tab ????
    ได้คร๊าบบบ..... จะจัดให้คร๊าบบบบ

    ท่อน Intro

    2 ------------------2----------------------------2---
    3 -------2-4-4-2----4--------------2-4-4-2---2-
    4 -2-4-------------------------2-4-----------------

    1 ------------------------------------2---
    2 -3-3-3-2-2-2------------------------
    3 -----------------4-4-4-2-2-2--------
    4 ----------------------------------5-----

    ท่อน Solo

    2 -------------------7-8-7-------------10---10--7-8-7-------
    3 ------7-9-7--7---------9-7-------------7----7--------9-7--
    4 -7-9--------7--7-----------------------------------------------

    ต่อ

    2 ------7-------------------------7-8-10-10-10-12-10-8----
    3 -7-9---9-9-7-7------7-7-9----------------------------------

    ต่อ
    |------------------------ ขยี้ๆๆๆ--------------------|
    1 -15-14-15-14-15-17-19-17------15-14------------------------------
    2 ---------------------------------------------------15--14-15-17-----------
  • 7 มี.ค.2550,15:22น.

    แก้ท่อนนี้นิดนะ

    |------------------------ ขยี้ๆๆๆ--------------------|
    1 -15-14-15-14-15-17-19-17------15-14-----------------------------------------------------
    2 ---------------------------------------------------15--15-13----------------------------7-9-7----
    3 ------------------------------------------------------------------12-11-7-6-7-9---7-9-----------
  • 7 มี.ค.2550,15:29น.

    -*- แก้ท่อนนี้นิดนะโทดอีกที

    |------------------------ ขยี้ๆๆๆ--------------------|
    1 -15-14-15-14-15-17-19-17------15-14--------------------------------------------------
    2 ---------------------------------------------------15--15-13------------------------------------
    3 -----------------------------------------------------------------12-11-7-6-7-9------7-9-7----
    4 -------------------------------------------------------------------------------------7-9------------

    คราวนี้โอเคแระ
  • ลิด มือกีต้าร์ วงกุหลาบแดง มือเบส วงกุหลาบดำ
    Guest
  • 24 เม.ย.2550,15:53น.
    intro:Bm/F#m/G
    Bm F#m
    นานเท่าใด กว่าจะมีใครสักคน
    G D F#
    ช่วยมาปล่อยความสับสน ที่มีอยู่ในหัวใจ
    Bm F#m
    นานเท่าใด กว่าจะมีสักหัวใจ
    G D F#
    ให้โอกาสฉันได้ไหม คนหน้าตาไม่ดี
    Bm F#m G D F#

    * ถึงไม่หล่อไม่ขาวไม่มีเสน่ห์ ไม่เทห์ไม่หน้าไว้ใจ

    Bm F#m
    ถึงคารม มันอาจบ้านๆเกินไป

    G A
    แต่จำไว้รักใครรักจริง

    D A G D
    ** คนรูปชั่วที่ตัวแสนดำ ไม่งามคล้ำใช่คนจัยร้าย

    Bm F#m G
    ถึงรูปชั่วก็มีหัวใจ ลองรักใคร...

    A D
    รักใครรักจริง
    solo:Bm/A/G (2time)
    Bm F#m
    นานเท่าใด กว่าจะมีคนเห็นใจ
    G D F#
    ขอแค่เพียงรู้เอาไว้ ว่าไม่ใช่คนหลายใจ
    Bm F#m
    นานเท่านาน ที่จะไม่ว่านเท่าใด
    G D F#
    แต่ไม่เคยทำให้ ใครต้องมาเจ็บช้ำนำใจ

    ( *,** )
    solo:Bm/A
    D/A/G/D/Bm/F#m/G Gm
    **
    แน่นอนกว่า
1

ขอเชิญร่วมแสดงความคิดเห็นครับ

คลิกที่รูป เพื่อแทรกรูปลงในข้อความ
  • Member :
    username
    password
  • Not a member :
    name
    email