Loading

ŧ Ĵٷѹ˧

(Flure)

ѾŴԻŧس ͧ/ µǤسͧ ѹ
ҧ÷ͺкҡͼԴҴ س駷
Print
Ĵٷѹ˧ : flure 

㹪Ե ˹Ĵ ѹ֡Դ֧˹觤
Ҥѹ еͧѹ轹ѹ

觹֧֡á觪
Ҥ׹ҡȨ˹ѡ
ͽҡ


ҩѹԴ֧觤Դ֧
㹤׹轹¡ѹç
ѹ˧ ѹ˹Ǩ᷺Ҵʹҡͷ
ͤ͡Ѻ ͨ شҧ


ѧ ء觷§ء֡ ͹鹷ѹ
ѹ ѧ㹤׹轹˹


觹֧֡á觪
Ҥ׹ҡȨ˹ѡ
ͽҡ

ҩѹԴ֧ 觤Դ֧㹤׹轹¡ѹç
ѹ˧ ѹ˹Ǩ᷺Ҵ ʹҡͷ
ͤ͡Ѻ ͨ ش¡ҧ

ѹԴ֧ 觤Դ֧㹤׹轹¡ѹç
ѹ˧ ѹ˹Ǩ᷺Ҵ ʹҡͷ

ҩѹԴ֧ 觤Դ֧㹤׹轹¡ѹç
ѹ˧ ѹ˹Ǩ᷺Ҵ ʹҡͷ

http://www.musicatm.com/thai/ŧ-Ĵٷѹ˧--(Flure)-4838.html
ŧ͹
ѹʵ : 11 ..2548,12:21. 61.91.229.251
ӹǹ : 349739 / ʴԴ : 176
ʵ


ҡ: AgNeau
: 9 ա͹
ŧ: 0
ʵ: 3
ŧй
ŧԵ
  • up
    1.
    ʵ (Stamp)
    ѧŧ
  • up
    2.
    ͡ (Cocktail)
    ѧŧ
  • up
    3.
    Ż
    ѧŧ
  • up
    4.
    ʹ (Bodyslam Feat. Labanoon)
    ѧŧ
  • up
    5.
    Ըҹ (The Voice)
    ѧŧ
͡ʴ੾ :

  • 4xzz
    Guest
  • 18 ..2548,11:31.
    Ĵٷѹ˧
    

    Flure

    INTRO: /Dmaj7/Dmaj7/Em/Em/(2 Times)

    Dmaj7 Em
    㹪Ե ˹Ĵ ѹ֡ Դ֧˹觤
    Dmaj7 Em
    ͤ Ҿѹ еͧ ѹ轹 ѹ

    G C7 F#m Bm A
    * 觹֧֡ 觪
    G C7
    Ҥ׹ҡȨ˹ǫѡ
    Em A
    ͽҡ
    Dmaj7 D7
    **()ѹԴ֧ ѧԴ֧
    Gmaj7 Gm
    㹤׹轹¡ѹç
    Dmaj7 D7
    ѹ˧ ѹ˹Ǩ᷺Ҵ
    Gmaj7 Gm
    ʹҡͷ

    Bm A Gmaj7
    ***ͤ͡Ѻ......
    Em A Dmaj7
    ͨ ش¡ҧ

    Dmaj7 Em
    ѧ ء觷§ ء֡ ͹鹷ѹ

    Dmaj7 Em
    ѹ ѧ㹤׹轹 ˹

    ( *, **,***)

    SOLO: /Bm/Cmaj7/E G/F#m E/A/(2Times)/A/

    ( **,**)
  • 4xzz
    Guest
  • 18 ..2548,11:31.
    Ĵٷѹ˧

    Flure

    INTRO: /Dmaj7/Dmaj7/Em/Em/(2 Times)

    Dmaj7 Em
    㹪Ե ˹Ĵ ѹ֡ Դ֧˹觤
    Dmaj7 Em
    ͤ Ҿѹ еͧ ѹ轹 ѹ

    G C7 F#m Bm A
    * 觹֧֡ 觪
    G C7
    Ҥ׹ҡȨ˹ǫѡ
    Em A
    ͽҡ
    Dmaj7 D7
    **()ѹԴ֧ ѧԴ֧
    Gmaj7 Gm
    㹤׹轹¡ѹç
    Dmaj7 D7
    ѹ˧ ѹ˹Ǩ᷺Ҵ
    Gmaj7 Gm
    ʹҡͷ

    Bm A Gmaj7
    ***ͤ͡Ѻ......
    Em A Dmaj7
    ͨ ش¡ҧ

    Dmaj7 Em
    ѧ ء觷§ ء֡ ͹鹷ѹ

    Dmaj7 Em
    ѹ ѧ㹤׹轹 ˹

    ( *, **,***)

    SOLO: /Bm/Cmaj7/E G/F#m E/A/(2Times)/A/

    ( **,**)
  • .......
    Guest
  • 18 ..2548,21:56.
    ͧ§
    ի
    Sleepless Society

    Intro : / C Em F G /

    C Em
    ѧ躹..͹
    Am Em F/G
    º椹ҡ..鹾
    C Em
    㨡ѧ..´
    Am F/G
    ѹѧШ

    Am Em
    *Ҿѹ繴觤ѡ ҧ÷зѺ
    F Em F G
    ҡЫѺҹ ..ѹҹ

    C Em Am G
    **ҡѺҧ ҧ..ѹ֧
    F Em F G
    Ҥԧ շҧ ѡѹ
    C Em Am Em
    .. §ѹ
    F Em F G C
    ͧͧ͡ ѹѹ ..շҧѹѹ..繨ԧ

    solo 1 : / C Em F G /

    C Em
    ..µ
    Am Em F/G
    Ҩйҹмҹ..ѡ
    C Em
    ءӤ׹ͧ..˧
    Am F/G
    ԧ ͧѡ

    *
    **
    solo 2 : / C Em F G /

    **
    outro : / C Em F G / C
  • .......
    Guest
  • 21 ..2548,12:48.

    Intro G/Bm/Em/C ( 2 times)
    G Bm C Cm
    ҡä֧դӶ ѡѹسҡо ӵͺ㨤÷سͧ
    G Bm C Cm
    ͤͤվ ҧҡѹͺ ͤͤӵͺءѹ
    Bm Em Bm Em
    *()繤зѺ蹡ѹ ѹҷоٴ
    Am Bm C D
    ʹ ͺͧҧ
    G Em C Cm Bm
    **ͺͧ͢ҧ .. ͹㹤ѧ
    Em C Am G
    ͺ͹ ⪤еҴ 褹ҧԴҾѺ
    intro G/Bm/Em/C
    G Bm C Cm
    ҡѹԹ ѡѹѹҨ ҧ㨩ѹҨӺҡ
    G Bm C Cm
    躹 ͧͨҡ鹴Թ § 鹡آ
    *,**
    C Bm C Bm
    ѹ֧˹Ҩҡͧҧ ֡š͹Ѻ
    C Bm C D
    ô šѧդǧ ҡç ...
    (solo) G/Em/C/Cm/Bm/Em/C/Am
    **
    G Em C Cm Bm
    ͺͧ͢ҧ .. ͹㹤ѧ
    Em C D G
    ͧմշյ͹ ͤ դآ§ҹѹ
    outtro G/Bm/Em/C (2 times)

  • Guest
  • 22 ..2548,09:48.
     Ab ͹ش  
    d1----
    e2---
    d3-------12---------15--------14 çͺҧѧ ͧѧ
    e4-------------------------13 13 13 13 13 13
    d5------9----
    e6-6-8---9-
    ͤ
    ͹ Ҷ١͹
    ((յ))


  • 26 ..2548,16:39.
         E        G#m              F#m             A              B
    㹪Ե ˹Ĵ ѹ֡ Դ֧˹觤
    E G#m F#m A B
    ͤ Ҿѹ еͧ ѹ轹 ѹ

    A B G#m C#
    * 觹֧֡ 觪
    F#m G#m
    Ҥ׹ҡȨ˹ǫѡ
    A B
    ͽҡ

    E G#m
    **()ѹԴ֧ ѧԴ֧
    Amaj7 B
    㹤׹轹¡ѹç

    ͡Ǥ µͷչ
  • katob
    Guest
  • 13 ..2548,13:32.
    Ĵٷѹ˧
    Flure

    INTRO: /Eb/Eb/F/F/(2 Times)

    Eb Ebmaj7 G# G#m
    㹪Ե ˹Ĵ ѹ֡ Դ֧˹觤

    Eb Ebmaj7 G# G#m
    ͤ Ҿѹ еͧ ѹ轹 ѹ

    G# C#7 Gm Cm Bb
    * 觹֧֡ 觪

    G# C#7
    Ҥ׹ҡȨ˹ǫѡ

    F7 Bb
    ͽҡ

    Eb Ebmaj7
    **()ѹԴ֧ ѧԴ֧

    G#7 G#m
    㹤׹轹¡ѹç

    Eb Ebmaj7
    ѹ˧ ѹ˹Ǩ᷺Ҵ

    G#7 G#m
    ʹҡͷ

    Cm G#
    ***ͤ͡Ѻ......

    F7 Bb (Solo Eb F7)
    ͨ ش¡ҧ


    Eb Ebmaj7 G# G#m
    ѧ ء觷§ ء֡ ͹鹷ѹ


    Eb Ebmaj7 G# G#m
    ѹ ѧ㹤׹轹 ˹


    ( *, **,***)

    SOLO: Cm/C#7/Bb/G#/Gm/F7/Bb(2Times)/Bb/

    ( **,**)



    觻СǴ¤
    .Шҡ մչ ҡѹ
  • Nobita~*
    Guest
  • 15 ..2548,18:46.
    e----------------------------------------------------------------------------------------
    b----------------------------------------------------------------------------------------
    g--4----6---13------8-------6------8------9------6-------4---------------------------------------
    d---------------------------------------------------------------------------------
    a-2----4----11-----6-------4------6------7------4-------2---------
    e-----------------------------------------------------------------------------------------

    Թ ѹͺá աͺ֧ͧͧٹФѺ 蹤9ҡ
  • Ϳ- [ӻҧ]
    Guest
  • 3 ..2548,10:22.
     ͧ

    D Em7
    㹪Ե ˹Ĵٷѹ֡

    Դ֧˹觤
    D
    ͤ Ҿѹ
    Em7
    еͧѹ轹 ѹ....
    G Gm F#m Bm A
    * 觹֧֡ 觪
    G Gm
    Ҥ׹ҡȨ˹ǫѡ
    Em7 A
    ͽҡ
    D D7
    ** ҩѹԴ֧ ѧԴ֧
    G Gm
    㹤׹轹¡ѹç
    D D7
    ѹ˧ ѹ˹Ǩ᷺Ҵ
    G Gm
    ʹ ҡͷ
    Bm A G Em7 A
    ͤ͡Ѻ... ͨ
    D
    ش¡ҧ


  • Guest
  • 24 ..2548,14:53.
    蹤 8 յ¢ͧس Nobita 
    e--------------------------------------------------------------
    b---------------------------------------------------------------
    g-3-5-11-----7----5---7--8----7--5---5s3--------------
    d-------------------------------------------------------------
    a-1-3-10-----5----3---5--6----5--3---3s1---------------
    e----------------------------------------------------------------

    e-------------------------------------------------------------------
    B--------------------------------------------------------------------
    g-3-5-11------7----7--8--10----7s5--5---5s3-3------------
    d------------------------------------------------------------------------
    a-1-3-10-----5----5---6--8-----5s3--3---3s1-1--------------
    e-----------------------------------------------------------------

    աǡ蹤 8 ͧСѹٹ мѧ͡
  • ҹ
    Guest
  • 28 ..2548,12:47.
    1>----------------------------------------------------------------------------
    2>----------8-8-8-8-8-8----3-3-3-3-3-3----------3---4-4-4-4-4-4-
    3>--3--5--------------------------------------------5-----------------------
    4>----------------------------------------------------------------------------
    5>----------------------------------------------------------------------------
    6>-----------------------------------------------------------------------------

    1>------------------------------------------------------------------------------------------------------
    2>--4-------------------------8-8-8-8-8-8-8-8----3-3-3-3-3----3-4-3-4--6-6-6-6-6-6-6
    3>------5--5---3----3---5----------------------------------------------------------------------------
    4>-------------------------------------------------------------------------------------------------------
    5>-------------------------------------------------------------------------------------------------------
    6>-------------------------------------------------------------------------------------------------------

    melody ѧҡ mp3 й 蹤 8 Ҩҡ
  • ... 4/1 555+
    Guest
  • 12 ..2549,17:35.
    intro
    e----------------------------------------------------------------------------------------
    B----------------------------------------------------------------------------------------
    G--4----6---13------8-------6------8------9-----p8p~~-----------------------
    D---------------------------------------------------------------------------------
    A--2----4----11-----6-------4------6------7------p6p~~----------------
    E---------------------------------------------------------------------------------

    to .be
    e----------------------------------------------------------------------------------------
    B----------------------------------------------------------------------------------------
    G--4----6---13------8---9/10/9/--11p10p~~~~-------
    D---------------------------------------------------------------------------------
    A--2----4----11-----6----7/6/7/---9p8p~~~~
    E-----------------------------------------------------------------------------------------

  • Lsc23
    Guest
  • 16 ..2549,17:38.
    ྦྷ 2
    Ẻ Է
    intro line1
    ex----------------------------------------------------------------------------------------
    Bx----------------------------------------------------------------------------------------
    G--3----5---12------7-------5------7------8------5-----------------------
    Dx---------------------------------------------------------------------------------
    A--1----3----10-----5-------3------5------6------3----------------
    Ex---------------------------------------------------------------------------------

    ex------------------------------------------------------------------------------------------
    Bx----------------------------------------------------------------------------------------------
    G--3----5---12------7-------8------7------8------10------8-----5-----3-----5------8----
    Dx-------------------------------------------------------------------------------------------8-
    A--1----3----10-----5-------6------5------6------8--------6-----3-----1-----3------6---
    Ex---------------------------------------------------------------------------------

    intro line2
    ex------------------------------------------------------------------------------------------
    Bx----------------------------------------------------------------------------------------------
    G--3----5---12------10----15-------12-----10------12--------------------------
    Dx------------------------------------------------------------------------------------------
    A--1----3----10-----10----13-------10------8-------10-------------------------
    Ex---------------------------------------------------------------------------------

    ex-----------------------------------------------------------------------------------------
    Bx---------------------------------------------------------------------------------------------
    G--3----5---12----12---15-------12-----10-----12-----12----10----8--------------
    Dx----------------------------------------------------------------------------8----------------
    A--1----3----10---10---13-------10------8------10-----10-----8-----6----------
    Ex--------------------------------------------------------------------------------

    ѺẺ ҨѧСѹͧ 5555
    x شѹʹ
  • zaphia
    Guest
  • 22 ..2549,10:48.
    ͧٴ Ҩ...
    Ĵٷѹ˧ :
    Intro: E/E/F#m/F#m(2 times)
    E F#m
    㹪Ե ˹Ĵ ѹ֡Դ֧˹觤
    E F#m
    ͤ Ҿѹ еͧѹ轹 ѹ
    Amaj7 Am6 G#m7 C# Bm7
    * 觹֧֡ 觪
    Amaj7 Am6
    Ҥ׹ҡȨ˹ǫѡ
    F#m B
    ͽҡ
    E E7 Amaj7 Am6
    ** ҩѹԴ֧ ѧԴ֧ 㹤׹轹¡ѹç
    E E7 Amaj7 Am6
    ѹ˧ ѹ˹Ǩ᷺Ҵ ʹҡͷ
    C#m Amaj7
    ͤ͡Ѻ
    F#m B
    ͨ ش¡ҧ
    Intro: E/E/F#m/F#m
    E F#m
    ҧǧѹ ء觷§ء֡ ͹鹷ѹ
    E F#m
    ѹ ѧ㹤׹轹
    ( *, **)
    Solo: C#m/D6/B7/A#dim/Amaj7/G#m7/F#m/B (2 times) B
    ( **)
    E E7 Amaj7 Am6
    ѹԴ֧ ѧԴ֧ 㹤׹轹¡ѹç
    E E7 Amaj7 Am6
    ѹ˧ ѹ˹Ǩ᷺Ҵ ʹҡͷ
    Intro: C#m/Amaj7

  • Guest
  • 23 ..2551,09:20.
    Ĵٷѹ˧

    Flure



    D Dmaj G Gm

    㹪Ե ˹Ĵ ѹ֡Դ֧˹觤

    D Dmaj Em/A

    ͤҾѹ еͧѹ轹 ѹ



    G Gm F#m B7

    *觹֧֡ 觪

    G Gm

    Ҥ׹ҡȨ˹ǫѡ

    Em A7

    ͽҡ



    Dmaj D7

    **ҩѹԴ֧ ѧԴ֧

    G Gm

    㹤׹轹¡ѹç

    Dmaj D7

    ѹ˧ ѹ˹Ǩ᷺Ҵ

    G Gm

    ʹҡͷ

    Bm A G

    ͤ͡Ѻ

    Em A Dmaj

    ͨ ش¡ҧ



    D Dmaj G

    ѧ ء觷§ء֡

    Gm

    ͹鹷ѹ

    D Dmaj Em/A

    ѹ ѧ㹤׹轹 ˹



    ( *, **)



    ( **)



    Dmaj D7 G Gm

    ѹԴ֧ ѧԴ֧ 㹤׹轹¡ѹç

    Dmaj D7 G Gm

    ѹ˧ ѹ˹Ǩ᷺Ҵ ʹҡͷ

    Bm A G

    ͤ͡Ѻ
  • 11 ..2556,12:23.
    Ĵٷѹ˧ 
    INTRO:
    Eb Ebmaj7 Fm7 Fm7 (X2)

    EB Fm7
    㹪Ե ˹Ĵٷѹ֡
    Դ֧˹觤
    Eb
    ä Ҿѹ
    Fm7
    еͧѹ轹ѹ

    Ab Abm6 Gm7 Cm Bb
    * 觹֧֡ 觪
    Ab Abm6
    Ҥ׹ҡȨ˹ѡ
    Fm7 Bb
    ͽҡ

    Eb Eb7
    ** ҩѹԴ֧ 觤Դ֧
    Ab Abm6
    㹤׹轹¡ѹç
    Eb Eb7
    ѹ˧ ѹ˹Ǩ᷺Ҵ
    Ab Abm6
    ʹҡͷ
    Cm Bb Ab Fm7 Bb
    ͤ͡Ѻͨ
    Eb
    شҧ

    Instrument:
    Eb Eb Fm7 Fm7

    Eb
    ѧ ء觷§
    Fm7
    ء֡ ͹鹷Դ
    Eb Fm7
    ѹ ѧ㹤׹轹
    ˹

    repeat * , **

    Instrument:
    Cm C#add9 / Bb Cm6 Ab Gm Fm Bb (X2)

    Eb Eb7
    ҩѹԴ֧ 觤Դ֧
    Ab Abm6
    㹤׹轹¡ѹç
    Eb
    ѹ˧
    Eb7
    ѹ˹Ǩ᷺Ҵ
    Ab Abm6
    ʹҡͷ
    Eb Eb7
    ҩѹԴ֧ 觤Դ֧
    Ab Abm6
    㹤׹轹¡ѹç
    Eb
    ѹ˧
    Eb7
    ѹ˹Ǩ᷺Ҵ
    Ab Abm6 Cm Bb Fm7
    ʹҡͷ


  • 22 ..2557,01:35.
    Intro : /Ebmaj7/Ebmaj7/Fm7/Fm7/(2 times)
    
         Ebmaj7                 Fm7
    㹪Ե ˹Ĵ ѹ֡ Դ֧˹觤
         Ebmaj7                                     Fm7
    ͤ Ҿѹ еͧ ѹ轹 ѹ
    
      Ab       Db7               Gm         Cm  Bb
    *  觹֧֡ 觪 
    Ab                     Db7                Fm7                     Bb
    Ҥ׹ҡȨ˹ǫѡ ͽҡ
    
                  Ebmaj7      Eb7             Ab                      Abm
    ** ()ѹԴ֧ ѧԴ֧ 㹤׹轹¡ѹç
        Eb                     Eb7                       Ab               Abm
    ѹ˧ ѹ˹Ǩ᷺Ҵ ʹҡͷ
    
         Cm      Bb         Ab Fm7            Bb
    *** ͤ͡Ѻ ͨ ش¡ҧ
    
    
    Instru : /Ebmaj7/Ebmaj7/Fm7/Fm7/
    
           Ebmaj7                        Fm7
    ѧ ء觷§ ء֡ ͹鹷ѹ
           Ebmaj7                       Fm7
    ѹ ѧ㹤׹轹 ˹
    
    ( * , ** , *** )
    
    Instru : /Cm/Dbmaj7 Bb/Bb Ab/Ab/Gm Fm7/Bb/(2 times)/Bb/
    
    (**,**)
    
    Outro : /Cm Bb/Ab/


  • 22 ..2557,01:35.
    INTRO:/Emaj7/F#m7(2 Times)
    
         Emaj7                 F#m7
    㹪Ե ˹Ĵ ѹ֡
    
                                Emaj7
    Դ֧˹觤(ä) 
    
                                      F#m7
    Ҿѹеͧѹ轹ѹ
    
           Amaj7 D9                G#m     C#m B
        *    觹֧֡á觪
    
        Amaj7                D9
        Ҥ׹ҡȨ˹ѡ
    
          F#m                   B
        ͽҡ
    
               Emaj7       E7
    ** ҩѹԴ֧觤Դ֧
    
             Amaj7              Am
    㹤׹轹¡ѹç
    
        Emaj7              E7
    ѹ˧ ѹ˹Ǩ᷺Ҵ
    
       Amaj7         Am
    ʹҡͷ
    
    C#m    B          A      F#m        B                Emaj7(C#m)
    (ͤ͡Ѻ) (ͨ شҧ)
    
    SOLO:/Emaj7/F#m7
    
                Emaj7                    F#m7
         ѧ ء觷§ء֡ 
    
                                  Emaj7
         ͹鹷ѹѹ ѧ
    
                  F#m7
         㹤׹轹˹
    
    ( *, **)
    
    SOLO:/C#m7/Dmaj7/B/A#m7/A/G#m/F#m/B(2 Times)
    
    ( **, **)
    
    SOLO:/C#m/B/F#7
1

ԭʴԴ繤Ѻ

ԡٻ áٻŧ㹢ͤ
  • Member :
    username
    password
  • Not a member :
    name
    email