Loading

คอร์ดเพลง วณิพก

คาราบาว

อัพโหลดคลิปเพลงนี้ที่คุณ ร้อง/เล่น ด้วยตัวคุณเอง ได้แล้ววันนี้
ระหว่างการทดสอบระบบหากพบข้อผิดพลาด กรุณาแจ้งที่นี่
Print
เมื่อดวงตาของฉันมันมืดมิด
แต่ชีวิตฉันยังไม่มืดลง
แม้ความรักยังเคยมีมั่นคง
จะร้างไกลไม่หวนกลับคืนมา

ออกยํ่าไปบนทางที่หิวโซ
มิรู้คืนรู้วันเวลา
ขอเศษเงินเศษทานผู้ผ่านมา
เพียงเมตตาฉันบ้าง...เป็นครั้งคราว

อยู่ในโลกความมืดอันลึกลับ
คงสดับรับได้แต่สําเนียง
จะมองหามองเห็นก็เป็นเพียง
ในความฝันยามฉันล้มตัวนอน

พอตื่นมาพานพบกับความหมาย.....
ยังหายใจเนื้อตัวยังผ่าวร้อน
ยังมีหวังเห็นดวงตะวันรอน
จะมัวนอนนิ่งเฉย...อยู่ทําไม

จึงมาเป็น.....วณิพกพเนจร
เที่ยวเร่ร่อน.....ร้องเพลงแลกเศษเงิน
ที่เหลือกินเหลือเก็บเป็นส่วนเกิน
จะนําเงินสะสม..รักษาดวงตา

จึงมาเป็น.....วณิพกพเนจร
เที่ยวเร่ร่อน.....ร้องเพลงแลกเศษเงิน
ที่เหลือกินเหลือเก็บเป็นส่วนเกิน
จะนําเงินสะสม..รักษาดวงตา

หากฉันเป็นตัวแทนความมืดมิด
ขอชดใช้ชีวิตที่เกิดมา
เพื่อทดแทนทุกท่านที่เมตตา
ด้วยนําพาเสียงเพลงสู่ผู้ฟัง

เป็นบทเพลงโลกมืดและความหมาย
จะกู่ก้องร้องไปไม่หยุดยั้ง
ใครจะว่าร้องเพลงให้ควายฟัง
ฉันว่ายังมีคนที่เข้าใจ

ใครจะว่าร้องเพลงให้ควายฟัง
ฉันว่ายังมีคนที่เข้าใจ
ใครจะว่าร้องเพลงให้ควายฟัง
ฉันว่ายังมีคน...ที่เข้าใจ
http://www.musicatm.com/thai/คอร์ดเพลง-วณิพก-คาราบาว-203.html
ดาวน์โหลด Poly
กด *424214037086584
กด *424214037086584
กด *424214037086584
ดาวน์โหลด Mono
กด *424211037086584
กด *424211037086584
กด *424211037086584
* อัตราค่าบริการดาวน์โหลด Fullsong, Truetone, Poly, Mono : 35 บาท/เพลง
ส่งเพลงนี้ให้เพื่อน
วันที่โพสต์ : 11 มี.ค.2546,09:43น.
จำนวนผู้ชม : 268548 คน / แสดงความคิดเห็น : 83 ครั้ง
โพสต์โดย


จาก: Noo_Mai
Guest
เพลงแนะนำ
เพลงฮิต
เลือกแสดงเฉพาะ :

  • sattra
    Guest
  • 20 มิ.ย.2551,18:58น. 118.174.206.183
      Bb     C        Dm          Bb        C            Dm

    * จึงมาเป็น...วณิพกพเนจร เที่ยวเร่ร่อน...ร้องเพลงแลกเศษเงิน

    Gm C7 Dm

    ที่เหลือกินเหลือเก็บเป็นส่วนเกิน จะนำเงินสะสม...รักษา ดวงตา


    เป็นอย่างนี้ต่างหากนะ 555
  • sattra
    Guest
  • 20 มิ.ย.2551,18:58น. 118.174.206.183
      Bb     C        Dm          Bb        C            Dm

    * จึงมาเป็น...วณิพกพเนจร เที่ยวเร่ร่อน...ร้องเพลงแลกเศษเงิน

    Gm C7 Dm

    ที่เหลือกินเหลือเก็บเป็นส่วนเกิน จะนำเงินสะสม...รักษา ดวงตา


    เป็นอย่างนี้ต่างหากนะ 555
  • kkkkkkkkui
    Guest
  • 27 มิ.ย.2547,01:08น.
    ขอtap
    ((อัพเดทแหล่งทดลองฟัง)) ((อัพเดทคอร์ดกีต้าร์)) ((ขอคอร์ดกีต้าร์))
  • โอ๊บ สธว
    Guest
  • 11 ก.ย.2549,23:38น.
    ท่อนอินโทร      Dm                    Dm                      C                              Dm

    1---------------/-5---56--5------- / 5-------------/-------------------------/----------------------------
    2----------6----/-----------------8-/--------------6/--8--6---5------------/-----------------------------
    3---7-----------/--------------------/---------7-----/----------------7---5--/--7-------------------------
    4---------------/---------------------/----------------/-------------------------/---------------------------
    5---------------/---------------------/-----------------/-------------------------/--------------------------
    6---------------/---------------------/-----------------/--------------------------/------------------------

    เเล้วกลัมาเลงนอีกรอบ

    เเกะเป็นเเต่อินโทร ใครเเกะsolo ได้บอกที
  • ตั้ม ชาวนาแบนด์
    Guest
  • 7 ต.ค.2549,06:16น.
    1------------------------------10--8-------------------------------------------------------------------------
    2---------6/8/6---7s10-------------8^---6/8/6-------------------6---------8s10s8-----6--5-----
    3----7-------------------------------------------------------7h5o7-----------7-------------------------5-
    1--------------------------------------------------------------------------------------------------------------
    2--------------------------------------------------------------------------------------------------------------
    3---5--7------------------------------------------------------------------------------------------------------
    แค่นี้ก่อนนะ อ่านหนังสือสอบก่อน วันหลังเด่ยวลงอก
  • tayos
    Guest
  • 23 พ.ย.2549,08:54น.
    วณิพก

    E----------------------10-----------------------------------------------------------------------------
    B--------8-10-8-10----13^-10 -----------------------------------------------------------------
    G-7-10----------------------------12-10-12-10-------------10-----12^-12p10-12---------
    D-----------------------------------------------------12-10-12----12-----------------------------
    A------------------------------------------------------------------------------------------------------
    E--------------------------------------------------------------------------------------------------------

    E-----------------------------8h10-8--10---------------------------------------------------------------
    B-----------------------------------------------------------------------------------------------------------
    G-10-9h10p9--7--5--7-----------------12^-12-10-12-10-------------10-----10-12h14-12
    D--------------------------------------------------------------------12-10-12-----12------------------
    A-----------------------------------------------------------------------------------------------------------
    E-----------------------------------------------------------------------------------------------------------

    E------------------------------------------------------------------------------------------------------------
    B---------------------------------------------------------13^-15-13-------------------------------------
    G-10-12-10--10-9--------------------------------------------------14-12^--10-12-12^----------
    D----------------------12-10-10-10s12--10-------------------------------------------------10h12
    A--------------------------------------------------10-8----------------------------------------------------
    E------------------------------------------------------------------------------------------------------------

    E-----------------------------------------------------------------------------------------------------------
    B----------------------------------------------------------------------------13-15-13-------------------
    G--10-----12^-12--10-12-10-12-12^-10--------------10----10--------------14-12^-10-12
    D------12------------------------------------------12-10-12----12------------------------------------
    A------------------------------------------------------------------------------------------------------------
    E------------------------------------------------------------------------------------------------------------

    E------------------------------------------------------------------------------------------------------------
    B------------------------------------------------------------------------------------------------------------
    G-10-------------10---------------------------------------------------------------------------------------
    D-----12-10-12----12-10------------------------------------------------------------------------------
    A-------------------------------12-10-8-8--10-8-------------------------------------------------------
    E-------------------------------------------------------8-8------------------------------------------------
  • บอย
    Guest
  • 6 มี.ค.2550,22:13น.

    อันนี้แน่นอน (เเกะเอง)

    2------------7--11--11--12-11--9-11
    3---------8----------------------------

    2---------7--9--7--6--7--6--4
    3------8-------------------------------

  • มือใหม่
    Guest
  • 10 มี.ค.2550,01:14น.

    Intro
    Dm C Dm Dm C Dm
    e|---3/5--5-5/5-5---5-|----------------------------|---3/5--5-5/5-5---5-|----------------------|
    B|--6-----------------8----|--6-8--8-5/6\5--------|--6-----------------8----|--6-8--8-5/6\5---|
    G|-7-----------------------|-7------------------7------|-7-----------------------|-7-----------------7-|
  • .........
    Guest
  • 21 มี.ค.2550,22:28น.

    ของแท้แน่นอน
    1-----------------------------------------------------------------------------
    2-----------------------------------------------------------------------------
    3-----10-10s14-14-14^-12s14---------10-10s12-12-9-9^----
    4-12---------------------------------------12-------------------------12- เล่น 2 รอบ
    5-----------------------------------------------------------------------------
    6-----------------------------------------------------------------------------

    s=slide ^=ดันสาย1/2เสียง
  • LusiFler
    Guest
  • 14 เม.ย.2550,19:37น.

    1------------------------------------------------------------------
    2------------------------------------------------------------------
    3------------------------------------------------------------------
    4-------------------------------------------------------------------
    5-------------------------------------------------------------------
    6-------------------------------------------------------------------
    คนเทพเท่านั้นที่มองเ ห็น LusiFler หนองโพธิ์ ต.หนองไผ่แบน อ.เมือง จ.อุทัยธานี
    ((ขอคอร์ดกีต้าร์))
  • .......
    Guest
  • 21 เม.ย.2550,02:58น.

    1------------------------------------------------------------------
    2------------------------------------------------------------------
    3------------------------------------------------------------------
    4-------------------------------------------------------------------
    5-------------------------------------------------------------------
    6-------------------------------------------------------------------
  • ๛The LusiFler๛อุทัยธานีครับ
    Guest
  • 29 เม.ย.2550,01:31น.

    ชัว 100 %
    1------------------------------------------------------------------
    2------------------------------------------------------------------
    3-------7s---11s---12--11--9---11-------------------------
    4---9--------------------------------------------------------------
    5-------------------------------------------------------------------
    6-------------------------------------------------------------------


    1------------------------------------------------------------------
    2------------------------------------------------------------------
    3-------7----9-----7-----6----7-----6-------------------------
    4---9----------------------------------9---------------------------
    5-------------------------------------------------------------------
    6-------------------------------------------------------------------
    ๛The LusiFler๛อุทัยธานีครับ

  • นิโฮงโกะ
    Guest
  • 25 ส.ค.2550,21:16น.

    Intro วณิพก
    1---------------------------------------------------------------------------------------------------------
    2-------------6--6s--10--11--10--9--10------6s--8--5-5-----6---------------------------------
    3--------7---------------------------------------7-----------------6-----7-----------------------------
    4---------------------------------------------------------------------------------------------------------
    5---------------------------------------------------------------------------------------------------------
    6---------------------------------------------------------------------------------------------------------

    แกะเองนะครับผิดถูกช่วยบอกด้วยนะครับ ราชวินิตบางแก้ว [ศิล-ญี่ปุ่น]
  • 30 มี.ค.2551,21:05น.
    วณิพกเนื้อเพลงและคอร์ดโดย :Peerawat Jinnapat Intro: Dm C Dm C Dm         Dm                          C                    Dmเมื่อดวงตาของฉันมันมืดมิด  แต่ชีวิตของฉันยังไม่มืดลง                                        C                   Dmแม้ความรักยังเคยมีมั่นคง  จะร้างไกลไม่หวนกลับคืนมา            Bb                    C         Dmออกย่ำไปบนทางที่หิวโซ  มิรู้คืนรู้วันเวลา        Gm                                         C7              Dmขอเศษเงินเศษทานผู้ผ่านมา  เพียงเมตตาฉันบ้าง...เป็นครั้งคราวSolo: Dm C Dm C       Dm                            C                Dmอยู่ในโลกความมืดอันลึกลับ  คงสดับรับได้แต่สำเนียง                                              C                 Dmจะมองหามองเห็นก็เป็นเพียง  ในความฝันยามฉันล้มตัวนอน       Bb                                      C                 Dmพอตื่นมาพานพบกับความหมาย...ยังหายใจเนื้อตัวยังผ่าวร้อน     Gm                                      C7           Dmยังมีหวังเห็นดวงตะวันรอน  จะมัวนอนนิ่งเฉย...อยู่ทำไม          Bm     C        Dm          Bb     A7                Dm* จึงมาเป็น...วณิพกพเนจร  เที่ยวเร่ร่อน...ร้องเพลงแลกเศษเงิน                                   Gm                C7                Dm  ที่เหลือกินเหลือเก็บเป็นส่วนเกิน  จะนำเงินสะสม...รักษา  ดวงตาSolo: Dm C Dm C Dm Bb F C Dm Bb F C Dm                                  ( ซ้ำ * )Solo: Dm C Dm C         Dm                                 C            Dmหากฉันเป็นตัวแทนความมืดมิด  ขอชดใช้ชีวิตที่เกิดมา                                             C                Dmเพื่อทดแทนทุกท่านที่เมตตา  ด้วยนำพาเสียงเพลงสู่ผู้ฟัง          Bb                                    C                  Dmเป็นบทเพลงโลกมืดและความหมาย  จะกู่ก้องร้องไปไม่หยุดยั้ง                              Gm        C7           Dmใครจะว่าร้องเพลงให้ความฟัง  ฉันว่ายังมีคนที่เข้าใจ                              Gm        C7           Dmใครจะว่าร้องเพลงให้ความฟัง  ฉันว่ายังมีคนที่เข้าใจ                              Gm        C7            Fใครจะว่าร้องเพลงให้ความฟัง  ฉันว่ายังมีคนที่เข้าใจSolo: Dm C Dm C Dm (2 times) 
  • 30 มี.ค.2551,21:07น.
          Bb     C        Dm          Bb     A7                Dm* จึงมาเป็น...วณิพกพเนจร  เที่ยวเร่ร่อน...ร้องเพลงแลกเศษเงิน                                   Gm                C7                Dm  ที่เหลือกินเหลือเก็บเป็นส่วนเกิน  จะนำเงินสะสม...รักษา  ดวงตาปล. ผมว่าท่อนนี้น่าจาเปนแบบนี้มากกว่าน้าาา
  • 22 ก.ย.2557,01:35น.
    INTRO: Dm C Dm C Dm
     
                            Dm
                เมื่อดวงตาของฉันมันมืดมิด 
                       C                  Dm
                แต่ชีวิตฉันยังไม่มืดลง 
     
                แม้ความรักยังเคยมีมั่นคง 
                          C                       Dm
                จะร้างไกลไม่หวนกลับคืนมา 
              Bb
    ออกยํ่าไปบนทางที่หิวโซ 
        C           Dm
    มิรู้คืนรู้วันเวลา 
              Gm
    ขอเศษเงินเศษทานผู้ผ่านมา 
                           C7          Dm
    เพียงเมตตาฉันบ้าง...เป็นครั้งคราว 
    SOLO: Dm C Dm C Dm
     
                       Dm   
              อยู่ในโลกความมืดอันลึกลับ 
                     C                 Dm
              คงสดับรับได้แต่สําเนียง 
     
              จะมองหามองเห็นก็เป็นเพียง 
                           C                     Dm
              ในความฝันยามฉันล้มตัวนอน 
             Bb
    พอตื่นมาพานพบกับความหมาย..... 
              C                    Dm
    ยังหายใจเนื้อตัวยังผ่าวร้อน 
           Gm      
    ยังมีหวังเห็นดวงตะวันรอน 
                       C7            Dm
    จะมัวนอนนิ่งเฉย...อยู่ทําไม 
                            Bb A7            Dm
              *   จึงมาเป็น.....วณิพกพเนจร 
                              Bb A7                          Dm
                   เที่ยวเร่ร่อน.....ร้องเพลงแลกเศษเงิน 
                                                           Gm 
                   ที่เหลือกินเหลือเก็บเป็นส่วนเกิน
                                    C7               Dm
                   จะนําเงินสะสม..รักษาดวงตา 
    SOLO: Dm C Dm C Dm Bb F C Dm Bb F C Dm
                                              (ซํ้า *)
    SOLO: Dm C Dm C Dm
                Dm   
    หากฉันเป็นตัวแทนความมืดมิด  
              C               Dm
    ขอชดใช้ชีวิตที่เกิดมา  
     
    เพื่อทดแทนทุกท่านที่เมตตา  
              C                    Dm
    ด้วยนําพาเสียงเพลงสู่ผู้ฟัง  
                          Bb
              เป็นบทเพลงโลกมืดและความหมาย  
                     C                      Dm
              จะกู่ก้องร้องไปไม่หยุดยั้ง   
                                                    Gm
              ใครจะว่าร้องเพลงให้ควายฟัง  
                      C7              Dm
              ฉันว่ายังมีคนที่เข้าใจ  
                                          Gm
    ใครจะว่าร้องเพลงให้ควายฟัง  
            C7              Dm
    ฉันว่ายังมีคนที่เข้าใจ            
                                          Gm
    ใครจะว่าร้องเพลงให้ควายฟัง  
                   C7           F
    ฉันว่ายังมีคน...ที่เข้าใจ 
    SOLO: Dm C Dm C Dm (2 ครั้ง)
1

ขอเชิญร่วมแสดงความคิดเห็นครับ

คลิกที่รูป เพื่อแทรกรูปลงในข้อความ
  • Member :
    username
    password
  • Not a member :
    name
    email