Loading

คอร์ดเพลง วังวน

แคลช (Clash)

อัพโหลดคลิปเพลงนี้ที่คุณ ร้อง/เล่น ด้วยตัวคุณเอง ได้แล้ววันนี้
ระหว่างการทดสอบระบบหากพบข้อผิดพลาด กรุณาแจ้งที่นี่
วังวน
Astist : Clash
Album : Crashing

Intro : C#m/F#/Bmaj7/G#m7/C#m/Eb/G#m7//

C#m F# Bmaj7
... บ่อยที่ในหัวใจ เหมือนได้ยินเสียงเธอ
C#m F# Bmaj7
และบ่อยที่นอนละเมอ ยังเผลอเรียกเธออย่างเดิม ซ้ำๆ
C#m F# Bmaj7 G#m7
* แต่ก็รู้ว่าเธอนั้นไปไกลสุดฟ้า และก็รู้ว่าเธอ ไม่มีวันคืนย้อนมา
C#m Eb G#m7
อยากจะทำตัว ทำหัวใจให้แข็งแรง เหมือนดังเดิมอีกครั้ง
C#m F# Bmaj7 G#m7
จะต้องเป็นอย่างนี้ นานเท่าไหร่ โอกาสที่มันจะหาย มองไม่เห็นทาง
C#m Eb G#m7
ติดอยู่ในวังวนที่ไร้ทางออก...เพราะว่ารักคำเดียว...

Solo : G#m7/C#m/F#/G#m7/C#m/F#/Bmaj7

(*)
ดาวน์โหลด Full Song
กด *424243078896584
กด *424243078896584
ดาวน์โหลด Truetone
กด *424218078896584
กด *424218078896584
กด *424218078896584
ดาวน์โหลด Poly
กด *424214078896584
กด *424214078896584
กด *424214078896584
ดาวน์โหลด Mono
กด *424211078896584
กด *424211078896584
กด *424211078896584
* อัตราค่าบริการดาวน์โหลด Fullsong, Truetone, Poly, Mono : 35 บาท/เพลง
ส่งเพลงนี้ให้เพื่อน
วันที่โพสต์ : 27 พ.ย.2549,00:51น. 203.154.51.4
จำนวนผู้ชม : 368254 คน / แสดงความคิดเห็น : 231 ครั้ง
โพสต์โดย


จาก: เจตน์
เข้าร่วม: 8 ปีก่อน
เพลง: 0
โพสต์: 2
เพลงแนะนำ
เพลงฮิต
เลือกแสดงเฉพาะ :

  • หนุ่ม เชียงราย
    Guest
  • 14 ธ.ค.2549,07:46น.
    เธอ 
    
    ศิลปิน : แคลช (Clash)
    เธอ
    Astist : Clash
    Album : Crashing
    Intro:D 8 times
    F/F/Dm/Dm/Bb/Bb/C/C

    F Dm
    เพียงแค่ได้เจอก็ใจละลาย ก็หวานซะเหลือเกิน

    Gm Bb C
    แค่มองก็หลงแทบตาย ทั้งที่เธอก็ไกลจนเกินจะคว้า

    F Dm
    ไม่รู้ว่าที่จริงเธอมีใครจอง แต่เสียงของหัวใจมันบอก

    Gm Bb C
    ไม่ขอแค่มอง ต้องบอกความจริงกับเธอสักที

    F Dm
    *ก็ขออภัยถ้าใจไม่เจียม ไม่รู้ยังไงก็คำคำเดียว

    Bb C
    เก็บมันไม่ไหว คงต้องว่าไปตามที่ใจต้องการ

    F Dm
    ต้องขออภัยถ้าพูดความจริงให้รู้ว่าเธอนั้นใช่จริงๆ

    Bb C
    กับคำว่ารัก เธอคงเข้าใจ คนมันห้ามใจไม่เป็น

    solo:F/F/Dm/Dm/Bb/Bb/C/C

    F Dm Gm
    รู้ว่าไม่ควรเพราะเธอเป็นใคร แต่ฝืนใจตัวเองมันทำไม่ได้ เท่าไหร่

    Bb C
    อย่าโกรธกันเลยถ้าเธอไม่เอา

    (ซ้ำ*)

    solo:Dm 4times
    Bb/Bb/F/F/Gm/Gm/Bb/C

    (ซ้ำ*)

    solo:F/F/Dm/Dm/Bb/Bb/C/C
    F


    ((ขอคอร์ดกีต้าร์))
  • หนุ่ม เชียงราย
    Guest
  • 14 ธ.ค.2549,07:46น.
    เธอ 
    ศิลปิน : แคลช (Clash)
    เธอ
    Astist : Clash
    Album : Crashing
    Intro:D 8 times
    F/F/Dm/Dm/Bb/Bb/C/C

    F Dm
    เพียงแค่ได้เจอก็ใจละลาย ก็หวานซะเหลือเกิน

    Gm Bb C
    แค่มองก็หลงแทบตาย ทั้งที่เธอก็ไกลจนเกินจะคว้า

    F Dm
    ไม่รู้ว่าที่จริงเธอมีใครจอง แต่เสียงของหัวใจมันบอก

    Gm Bb C
    ไม่ขอแค่มอง ต้องบอกความจริงกับเธอสักที

    F Dm
    *ก็ขออภัยถ้าใจไม่เจียม ไม่รู้ยังไงก็คำคำเดียว

    Bb C
    เก็บมันไม่ไหว คงต้องว่าไปตามที่ใจต้องการ

    F Dm
    ต้องขออภัยถ้าพูดความจริงให้รู้ว่าเธอนั้นใช่จริงๆ

    Bb C
    กับคำว่ารัก เธอคงเข้าใจ คนมันห้ามใจไม่เป็น

    solo:F/F/Dm/Dm/Bb/Bb/C/C

    F Dm Gm
    รู้ว่าไม่ควรเพราะเธอเป็นใคร แต่ฝืนใจตัวเองมันทำไม่ได้ เท่าไหร่

    Bb C
    อย่าโกรธกันเลยถ้าเธอไม่เอา

    (ซ้ำ*)

    solo:Dm 4times
    Bb/Bb/F/F/Gm/Gm/Bb/C

    (ซ้ำ*)

    solo:F/F/Dm/Dm/Bb/Bb/C/C
    F


    ((ขอคอร์ดกีต้าร์))
  • เนตร [ลาดบัง2F/2]
    Guest
  • 31 ธ.ค.2549,19:43น.
     Intro: Turn to  Eเป็นEb ลดครึ่งเสียง

    1>--------------------------------------------------------------------------------------------------
    2>-----5-6---6/8---6--5--6---5---------------------------------------------------------------
    3>--------------------------------------5--------5/7-----5/7--5-4--5-4----------4/7---6--
    4>-------------------------------------------7--------------------------------5-5---------------
    5>------------------------------------------------------------------------------------------------
    6>-------------------------------------------------------------------------------------------------

    1>------------------------------------------------------
    2>------------------------------------------------------ จบนี้ แล้ก้อไล่ สเกล อาไรม่ายรู้อีก 2 ชุดเหอ
    3>-6--7---9---12----10-----------------4--5--4--
    4>----------------------------10---10----------------
    5>------------------------------------------------------
    6>----------------------------------------------------
    น่าจา ถูกน่า ไปปรับวิธีการ เล่นกันเองเน้อ ลูกเล่น อะจะ
  • เต่า
    Guest
  • 11 ก.พ.2550,01:38น.

    2>---5--6--6/7--6--5--6--5h6-----------------------------------------------
    3>-------------------------------------5--6--5/7--6/7--5--4--5--4----------
    4>--------------------------------------------------------------------------5--5--

    2>--------------------------5--6/7--7----------------------------------------
    3>--6/7--7/6--4/6--7----------------5--5--3/5--4---------------------
    3>-------------------------------------------------------------------------------

    ที่เหลือก็ไล่สเกลเอานะแต่ตัดเสียงฟาออกไป(ขีเกียจพิมพ์)
  • เต่า
    Guest
  • 11 ก.พ.2550,01:41น.

    2>---5--6--6/7--6--5--6--5h6-----------------------------------------------
    3>-------------------------------------5--6--5/7--6/7--5--4--5--4----------
    4>--------------------------------------------------------------------------5--5--

    2>------------------------5--6/7--7----------------------------------------
    3>--6/7--6--4/6--7-----------------5--5--3/5--4---------------------
    3>-------------------------------------------------------------------------------
    แก้ไข
  • Mr.mayday
    Guest
  • 14 มี.ค.2550,10:37น.

    เพลงนี้ครับบอกให้หวังดีบอกแทบก็ได้เด๋วบอกให้ดูแล้วอย่างง

    เล่นเลียนแบบพี่แฮ็กเลยนะ เพลงนี้ทดสาย ครึ่งเสียง

    TEB
    2--5h6/8/6-5h6-5hp6
    3--------------------------------5---5/7--5/7--5/4/5--4-------5/7---6--6-7-7/9-9/12/10--
    4-----------------------------------7----------------------------5-5


    3--5-5-3/5/4

    ไล่สเกลจับกันเอาเองนะครับ

    เครื่องมหายต่างๆ
    h=ตบสายครับ
    hp=ตบสายแล้วปล่อยให้มีเสียงของตัวโน๊ตที่เราจับอยู่ครับ
    /=สไลสาย ถ้างงก็ลองหัดดูเองเล่นให้ตายเพลงหละชัวแน่ๆ

    ถ้าผิดขอประทานอภัยอย่างสูง- -เพราะแกะตามเพลงแล้วเล่นยังเงี้ยเปียบ
  • XeEiZaz
    Guest
  • 18 ส.ค.2550,19:57น.

    intro

    1|---------------------------------------------------------------------------------------------------
    2|--5h6--/8\6--5/6--5------------------------------------------------------------------------
    3|------------------------------5-----(5)/7----/7\5--4h5-(4)h(5)p4-----------/7-6------
    4|----------------------------------7-------------------------------------------5-5---------------
    5|--------------------------------------------------------------------------------------------------
    6|--------------------------------------------------------------------------------------------------

    1|-------------------------------------------------------------------------------------------------
    2|---------------5--(6)/8\6--------------------------------------------------------------------
    3|--(4)/6--7--------------------5-5--(4)h5\4----------------------------4h5p4----------
    4|---------------------------------------------------------------------3-5-7-----------7--------
    5|-------------------------------------------------------------3-5-7-----------------------------
    6|-----------------------------------------------------3-5-7-------------------------------------

    1|------------------------------------------
    2|------------------------------------------
    3|------------------------------------------
    4|--9h10--5h7--0h2------------------
    5|-------------------------0h2-0--------
    6|-----------------------------------------
  • DarK_DeviL
    Guest
  • 20 ต.ค.2550,10:30น.


    อันนี้ท่อนเริ่มเลยน่ะ ถูกที่สุดแระ
    2>---5--6--6/8--6--5--6--5-----------------------------------------------
    3>---------------------------------5-----5/7--5/7--5--4--5--4----------
    4>------------------------------------7---------------------------------5--5--

    2>---------------------------------------------------------------------------
    3>--5/7--6---7---8---9/12--10----------------------------------------
    3>------------------------------------10--10--4/5--4--------------------

    ที่เกาอ่ะน่ะ เกาตามนี้น่ะ
    เบด 3-2-3-1-3-2-3- อย่างงี้ตลอดเลยน่ะ แล้วจับคอร์ตามข้างล่าง น่ะ

    Dm7 G C
    ... บ่อยที่ในหัวใจ เหมือนได้ยินเสียงเธอ
    Dm7 G C A
    และบ่อยที่นอนละเมอ ยังเผลอเรียกเธออย่างเดิม ซ้ำๆ
    Dm7 G C Am
    * แต่ก็รู้ว่าเธอนั้นไปไกลสุดฟ้า และก็รู้ว่าเธอ ไม่มีวันคืนย้อนมา
    Dm7 G Am A
    อยากจะทำตัว ทำหัวใจให้แข็งแรง เหมือนดังเดิมอีกครั้ง
    Dm7 G C Am
    จะต้องเป็นอย่างนี้ นานเท่าไหร่ โอกาสที่มันจะหาย มองไม่เห็นทาง
    Dm7 G Am
    ติดอยู่ในวังวนที่ไร้ทางออก...เพราะว่ารักคำเดียว...

    Solo : /Dm7/G/Am/Dm7/G/C
  • กุ้ง
    Guest
  • 10 พ.ย.2550,02:25น.
    โทษครับ วง Cash เขาใช่ขึ้นตนด้วย Cm7 ครับ
    หมายความว่า
    Intro : C#m/F#/Bmaj7/G#m7/C#m/Eb/G#m7//

    Cm7 F Bbmaj7
    ... บ่อยที่ในหัวใจ เหมือนได้ยินเสียงเธอ
    Cm7 F Bbmaj7
    และบ่อยที่นอนละเมอ ยังเผลอเรียกเธออย่างเดิม ซ้ำๆ
    Cm7 F Bbmaj7 Gm7
    * แต่ก็รู้ว่าเธอนั้นไปไกลสุดฟ้า และก็รู้ว่าเธอ ไม่มีวันคืนย้อนมา
    Cm7 D Gm7 G
    อยากจะทำตัว ทำหัวใจให้แข็งแรง เหมือนดังเดิมอีกครั้ง
    Cm7 F Bbmaj7 Gm7
    จะต้องเป็นอย่างนี้ นานเท่าไหร่ โอกาสที่มันจะหาย มองไม่เห็นทาง
    Cm7 D Gm7
    ติดอยู่ในวังวนที่ไร้ทางออก...เพราะว่ารักคำเดียว...

    Solo : Gm7/Cm7/F/Gm7/Cm7/F/Bbmaj7

    ชัวครับ แน่นอน ไปดูวง Clash เล่นมา Yo !
  • โจ้
    Guest
  • 24 มี.ค.2551,17:39น.


    2>---5--6/8--6--5--6--5-----------------------------------------------
    3>-------------------------------5--5-----7----6--5--4--5--4----------
    4>---------------------------------------7-------------------------5--5/7--7--6----

    2>-------------5--6/8------------------------------------------
    3>--4--6--7-------------5--5--5/2--4---------------------

    3>------------------------------------------------------2------------------------------
    4>--------------------------------------2--3-4--5------------------------------------
    5>----------------------2--3--4--5---------------------------------------------------
    6>-------2--3--4--5------------------------------------------------------------------

    2>-------1------------------------
    3>-----------2---------0---------Am
    4>----------------2---------------
1

ขอเชิญร่วมแสดงความคิดเห็นครับ

คลิกที่รูป เพื่อแทรกรูปลงในข้อความ
  • Member :
    username
    password
  • Not a member :
    name
    email