Loading

คอร์ดเพลง ศรัทธา

หิน เหล็ก ไฟ

อัพโหลดคลิปเพลงนี้ที่คุณ ร้อง/เล่น ด้วยตัวคุณเอง ได้แล้ววันนี้
ระหว่างการทดสอบระบบหากพบข้อผิดพลาด กรุณาแจ้งที่นี่
                                                           ศรัทธา
หิน เหล็ก ไฟ
(Trilogy Rock Concert)
Intro : F Bb C F / C
F / C Dm Bb / C F / C

F Dm
ไม่มี ก็คงต้องมีสักวัน
Gm C
ความฝันเป็นจริงต้องทนสู้ไป
F Dm
ไม่นาน เราคงจะได้สมใจ
Bb C
มุ่งมั่น ทุ่มเทเพียงใดกว่าจะได้มา
F Dm
เส้นชัย ไม่มาต้องไปหามัน
Gm C
รางวัล มีไว้ให้คนตั้งใจ
F Dm
ขวากหนาม ทิ่มแทงก็ผ่านพ้นไป
Bb C
โลกนี้ไม่มีอะไรได้มาง่ายดาย

F C Dm Bb C F / C
*ใจสู้หรือเปล่า ไหวไหมบอกมา
F C Dm BbC F / C
โอกาสของผู้กล้า ศรัทธาไม่มีท้อ

(ดนตรี) F Bb C C

F Dm Gm C
ที่มา รู้ดีไม่รู้ที่ไป คนเรามันเลือกเกิดเองไม่ได้
F Dm
แต่เราเลือกได้จะเป็นเช่นไร
Bb C
เลือกได้จะทำตามใจด้วยตัวของเรา
F Dm Gm C
หลายคน เชื่อในเรื่องโชคชะตา บางคนเชื่อมั่นในตัวเอง
F Dm
ชีวิต เรากำหนดของเราเอง
Bb C
จะแพ้ชนะไม่เกรงจะสักเท่าไร

(ซ้ำ * )

Bb Dm
เรื่องราวมากมายที่ทำ ได้ใจโอบก็หวั่นไหว
Bb Eb C
แต่ก็มีเหตุผลสำคัญ ให้บางคนยอมถอดใจ เย.......

(ดนตรี) F /C Dm Bb / C F / C (2 times)
(ซ้ำ * )
ส่งเพลงนี้ให้เพื่อน
วันที่โพสต์ : 28 เม.ย.2548,13:13น.
จำนวนผู้ชม : 497194 คน / แสดงความคิดเห็น : 123 ครั้ง
โพสต์โดย


จาก: ลูกปลา
Guest
เพลงแนะนำ
เพลงฮิต
เลือกแสดงเฉพาะ :

  • aEm
    Guest
  • 3 พ.ค.2548,01:57น.
    ntro : F# B C# F# / C#
    

    F# / C# D#m B / C# F# / C#


    F# D#m

    ไม่มี ก็คงต้องมีสักวัน

    G#m C#

    ความฝันเป็นจริงต้องทนสู้ไป

    F# D#m

    ไม่นาน เราคงจะได้สมใจ

    B C#

    มุ่งมั่น ทุ่มเทเพียงใดกว่าจะได้มา

    F# D#m

    เส้นชัย ไม่มาต้องไปหามัน

    G#m C#

    รางวัล มีไว้ให้คนตั้งใจ

    F# D#m

    ขวากหนาม ทิ่มแทงก็ผ่านพ้นไป

    B C#

    โลกนี้ไม่มีอะไรได้มาง่ายดาย



    F# C# D#m B C# F# / C#

    *ใจสู้หรือเปล่า ไหวไหมบอกมา

    F# C# D#m BC# F# / C#

    โอกาสของผู้กล้า ศรัทธาไม่มีท้อ



    (ดนตรี) F# B C# C#



    F# D#m G#m C#

    ที่มา รู้ดีไม่รู้ที่ไป คนเรามันเลือกเกิดเองไม่ได้

    F# D#m

    แต่เราเลือกได้จะเป็นเช่นไร

    B C#

    เลือกได้จะทำตามใจด้วยตัวของเรา

    F# D#m G#m C#

    หลายคน เชื่อในเรื่องโชคชะตา บางคนเชื่อมั่นในตัวเอง

    F# D#m

    ชีวิต เรากำหนดของเราเอง

    B C#

    จะแพ้ชนะไม่เกรงจะสักเท่าไร


    (ซ้ำ * )



    B D#m

    เรื่องราวมากมายที่ทำ ได้ใจโอบก็หวั่นไหว

    B Eb C#

    แต่ก็มีเหตุผลสำคัญ ให้บางคนยอมถอดใจ เย.......



    (ดนตรี) F# /C# D#m B / C# F# / C# (2 times)

    (ซ้ำ * )


    ผมแกะใน mp3 มันน่าจะยังงี้น่ะ เพิ่มไป 1 key
  • aEm
    Guest
  • 3 พ.ค.2548,01:57น.
    ntro : F# B C# F# / C#

    F# / C# D#m B / C# F# / C#


    F# D#m

    ไม่มี ก็คงต้องมีสักวัน

    G#m C#

    ความฝันเป็นจริงต้องทนสู้ไป

    F# D#m

    ไม่นาน เราคงจะได้สมใจ

    B C#

    มุ่งมั่น ทุ่มเทเพียงใดกว่าจะได้มา

    F# D#m

    เส้นชัย ไม่มาต้องไปหามัน

    G#m C#

    รางวัล มีไว้ให้คนตั้งใจ

    F# D#m

    ขวากหนาม ทิ่มแทงก็ผ่านพ้นไป

    B C#

    โลกนี้ไม่มีอะไรได้มาง่ายดาย



    F# C# D#m B C# F# / C#

    *ใจสู้หรือเปล่า ไหวไหมบอกมา

    F# C# D#m BC# F# / C#

    โอกาสของผู้กล้า ศรัทธาไม่มีท้อ



    (ดนตรี) F# B C# C#



    F# D#m G#m C#

    ที่มา รู้ดีไม่รู้ที่ไป คนเรามันเลือกเกิดเองไม่ได้

    F# D#m

    แต่เราเลือกได้จะเป็นเช่นไร

    B C#

    เลือกได้จะทำตามใจด้วยตัวของเรา

    F# D#m G#m C#

    หลายคน เชื่อในเรื่องโชคชะตา บางคนเชื่อมั่นในตัวเอง

    F# D#m

    ชีวิต เรากำหนดของเราเอง

    B C#

    จะแพ้ชนะไม่เกรงจะสักเท่าไร


    (ซ้ำ * )



    B D#m

    เรื่องราวมากมายที่ทำ ได้ใจโอบก็หวั่นไหว

    B Eb C#

    แต่ก็มีเหตุผลสำคัญ ให้บางคนยอมถอดใจ เย.......



    (ดนตรี) F# /C# D#m B / C# F# / C# (2 times)

    (ซ้ำ * )


    ผมแกะใน mp3 มันน่าจะยังงี้น่ะ เพิ่มไป 1 key
  • หม่องหม๋อง
    Guest
  • 29 พ.ค.2548,16:59น.
    เง้อ Tab ค้าบ O_o
    Intro!
    6---------------------------------------------------------------
    5---------------------------------------------------------------
    4--4--/8-----8--/4----6--8----8---------------------------
    3----------6--------------------6-----6---8------8---------------------------------------------------6-
    2-----------------------------------------------7-------------------------7--------------------7--7------
    1-------------------------------------------------------6--6--7--6--4-----4--6--7--6--4-------------
    แกะกะกีต้าร์โปร่งนะงะอาจไม่เป๊ะ
  • หม่องหม๋อง
    Guest
  • 29 พ.ค.2548,17:11น.
    ท่อนกลางงะ
    6------------------------------------------------------------------
    5-----------------------------------------------------------------------
    4---------------------------------------------------------------------------
    3-------6------------------------------------------------------------------------
    2---7------/11----9--7--9--11--7------------------9-9---7-7------------------
    1----------------------------------------9-9----6-6-----------------9-9---6-6---14--13--14--13--9--
    แล้วก้อขึ้นว่า ที่มา รู้ดีไม่รู้ที่ไป ผิดถูกยังไงบอกด้วยค้าบ
    ['.']
  • หม่องหม๋อง
    Guest
  • 29 พ.ค.2548,17:33น.
    6----------------------------------------------------------------------
    5------------------------------------------------------------9-6-----
    4--4--/8----------------------------------------8---8-6--------------8-6
    3-----------6--8--6-------8-6-8---------8-6------------------8-6--------------8-6
    2----------------------7-6---------7-6-7------------------------------------7-6
    1-------------------------------------------------------------------------------------------6-6----4
    ต่องะ
    6----------------------------------------------
    5-------------------------------------------------------------
    4----------------------------------------------------------------------------
    3----------------6----------------------------------------------------------------------
    2--7-7------4----------------------------------7-7-------16--------------------------------
    1--------------------6-6-----4--6--7--6--4------------------------------------------------------
    หลังจากนั้นก็เปงกานไล่ Scale :ซึ่งถ้าใครแกะได้มาโพสด้วยนะค้าบ
  • 11
    Guest
  • 31 พ.ค.2548,17:36น.
    ตั้งสายEbก่อนนะ
    1)-----15p14p12---------------------------------------------------------------
    2)---------------------15p13p12------------------------------------------------
    3)--------------------------------------14p12p11--------------------------------
    4)-----------------------------------------------------14p12-------------------------
    5)----------------------------------------------------------------15p14p12p10---
    ผิดอย่าว่ากัน
  • TopGp
    Guest
  • 31 พ.ค.2548,19:45น.
    แกะจากสเกลที่ไล่ขึ้นของสเกลE Pentatonic Minor
    1:---14-13-12----------------------------------------------------------
    2:----------------14-13-12---------------------------------------------------
    3:------------------------------14-13-12------------------------------------------
    4:---------------------------------------------14-13-12--------------------------------
    5:-----------------------------------------------------------14-13-12-------------
    6:-------------------------------------------------------------------------14-13-12-----
    ใช้เทคนิคสบัดปิ๊กนะคับใครยังไม่คล่องค่อยๆฝึกไล่จากช้าๆก่อนนะคับ14ดีดลง13ดีดขึ้น12ดีดลง
    ที่สเกลมันมีแค่นี้แต่ที่ในเพลงดูเยอะเพราะสบัดปิ๊กละคับนิ้วไปตามจังที่ดีดด้วย
    ใครนิ้วยังไม่ค่อยเอาอันนี้ไปฝึกนิ้วได้ดีทีเดียว

  • อันนี้เนียนกว่าอันที่แล้ว
    Guest
  • 10 มิ.ย.2548,21:56น.
    ท่อนส่งท้าย
    1:-----16--14-11-14-11---------------------------------------------------------------
    2:-----------------------14-11-14------------------------------------------------------
    3:--------------------------------14-13-11---------------------------------------
    4:----------------------------------------------13-12-11----------------------------
    5:-----------------------------------------------------------13-12-11-9------------
    6:-----------------------------------------------------------------------------------
  • [big]
    Guest
  • 27 ต.ค.2548,22:00น.
    Intro : F# B C# F# / C#
    F# / C# D#m B / C# F# / C#

    F# Eb
    ไม่มี ก็คงต้องมีสักวัน
    B C#
    ความฝันเป็นจริงต้องทนสู้ไป
    F# Eb
    ไม่นาน เราคงจะได้สมใจ
    B C#
    มุ่งมั่น ทุ่มเทเพียงใดกว่าจะได้มา
    F# Eb
    เส้นชัย ไม่มาต้องไปหามัน
    B C#
    รางวัล มีไว้ให้คนตั้งใจ
    F# Eb
    ขวากหนาม ทิ่มแทงก็ผ่านพ้นไป
    B C#
    โลกนี้ไม่มีอะไรได้มาง่ายดาย

    F# C# Eb B C# F# / C#
    *ใจสู้หรือเปล่า ไหวไหมบอกมา
    F# C# Eb B C# F# / C#
    โอกาสของผู้กล้า ศรัทธาไม่มีท้อ

    (ดนตรี) F# B C# C#

    F# Eb G#m C#
    ที่มา รู้ดีไม่รู้ที่ไป คนเรามันเลือกเกิดเองไม่ได้
    F# Eb
    แต่เราเลือกได้จะเป็นเช่นไร
    Bb C#
    เลือกได้จะทำตามใจด้วยตัวของเรา
    F# Eb G#m C#
    หลายคน เชื่อในเรื่องโชคชะตา บางคนเชื่อมั่นในตัวเอง
    F# Eb
    ชีวิต เรากำหนดของเราเอง
    B C#
    จะแพ้ชนะไม่เกรงจะสักเท่าไร

    (ซ้ำ * )

    B Eb
    เรื่องราวมากมายที่ทำ ได้ใจโอบก็หวั่นไหว
    Bb E#b C#
    แต่ก็มีเหตุผลสำคัญ ให้บางคนยอมถอดใจ เย.......

    (ดนตรี) F /C Dm Bb / C F / C (2 times)
    (ซ้ำ * )
  • 22 ก.ย.2557,01:35น.
    INTRO:/G/C/D/G/D/G/D/Em/C/D/G/D
    
     G             Fm
    ไม่มี ก็คงต้องมีซักวัน 
    
     Am                   D
    ความฝันเป็นจริงต้องทนสู้ไป
    
     G                Em
    ไม่นานเราคงจะได้สมใจ 
    
        C                            D
    มุ่งมั่น ทุ่มเท เพียงใดกว่าจะได้มา
    
              G                  Em
             เส้นชัย ไม่มาต้องไปหามัน 
    
             Am           D
             รางวัลมีไว้ให้คนตั้งใจ
    
               G                         Em
             ขวากหนามทิ่มแทงก่อนผ่านพ้นไป 
    
                  C                  D
             โลกนี้ไม่มีอะไรได้มาง่ายได้
    
       G D      Em   C  D        C/D
    * ใจสู้หรือเปล่า ไหวมั้ย บอกมา 
    
         G   D     Em      C   D   G/D
    โอกาส ของผู้กล้า ศรัทธา ไม่มีท้อ
    
    SOLO:/G/C/D
    
             G          Em
             ที่มารู้ดีไม่รู้ที่ไป 
    
             Am                  D
             คนเรามันเลือกเกิดเองไม่ได้
    
              G                 Fm
             แต่เราเลือกได้จะเป็นเช่นไร 
    
                    C                         D
             เลือกได้จะทำตามใจด้วยตัวของเรา
    
      G                      Em
    หลายคน เชื่อในเรื่องโชคชะตา 
    
    Am                D
    บางคนเชื่อมั่นในตัวเอง
    
    G                 Em
    ชีวิต เรากำหนดของเราเอง 
    
        C                       D
    จะแพ้ชนะไม่เกรงจะสักเท่าไหร่ 
    
              ( ซ้ำ * )
    
    C
      เรื่องราวมากมายบีบคั้น
    
    Em
      กายและใจโอนอ่อนหวั่นไหว
    
    C
      ต่างก็มีเหตุผลสำคัญ
    
          F                  D
      ให้บางคนยอมถอดใจ 
    
    SOLO:/G/D/Em/C/D/G/D(2 Times)
    
             ( ซ้ำ * )
    
    SOLO:/G/Em/C/D/G
1

ขอเชิญร่วมแสดงความคิดเห็นครับ

คลิกที่รูป เพื่อแทรกรูปลงในข้อความ
  • Member :
    username
    password
  • Not a member :
    name
    email