Loading

คอร์ดเพลง สองรัก

ซีล (Zeal)

อัพโหลดคลิปเพลงนี้ที่คุณ ร้อง/เล่น ด้วยตัวคุณเอง ได้แล้ววันนี้
ระหว่างการทดสอบระบบหากพบข้อผิดพลาด กรุณาแจ้งที่นี่
Print

Artist : Zeal
Title : สองรัก

A D Bm E
แต่ก่อนแต่ไร เข้าใจ ว่าการเป็นคนรัก คือเรียนรู้กันและกัน
A Bm C#m Dm
แต่ถ้าใครคนหนึ่ง ไม่ใช่ตัวจริง ก็คงต้องจากกัน เหมือนดังเรื่องเธอกับฉัน

Instru : D/A ( 2time )

A D Bm E
ทนเจ็บและยอมรับมา เมื่อเธอได้เจอตัวจริง กว่าฉันถึงต้องไป
A Bm C#m D
แต่มาวันนี้ เธอมีเรื่องราวมากมาย ที่ฟังไม่เข้าใจ ยิ่งฟังยิ่งทรมานฉัน

C#m F# Bm Dm
* เธอบอกเหตุผลที่หยุดความรัก ระหว่างฉัน เพราะเธอไม่รู้ว่า จะรักเขามากกว่าไหม
C#m F# Bm E
ตัวปลอมอย่างฉัน ก็ยังคงรัก บอกอย่างนี้ได้ไง อย่าปล่อยให้หวัง กันอีกเลย

D C#m
** สองรัก ฉันรับไม่ไหว เธอมีหนึ่งใจ ให้ไปตั้ง
D C#m
สองรัก ทั้งเขาและฉัน ฝันไปหรือเธอ
D C#m F#m
มีใคร ยอมทนบ้างไหม ลืมตาตื่นมาสักทีเถอะ
Bm Dm
สองหัวจิต หัวใจอย่างนี้ เลือกซักทีเถอะ เอา ( ซักทาง.... )

Instru : A/E/Bm/Dm ( 2time )

( ซ้ำ * , ** , ** )

Ending : D/A ( 4time )
http://www.musicatm.com/thai/คอร์ดเพลง-สองรัก-ซีล-(Zeal)-790.html
ส่งเพลงนี้ให้เพื่อน
วันที่โพสต์ : 14 ธ.ค.2546,22:11น.
จำนวนผู้ชม : 191225 คน / แสดงความคิดเห็น : 94 ครั้ง
โพสต์โดย


จาก: Zeal club
Guest
เพลงแนะนำ
เพลงฮิต
เลือกแสดงเฉพาะ :

  • หำโต
    Guest
  • 21 ส.ค.2547,12:21น.
    1.--------------------------------------------------------------------------------------------------
    
    2.-----14------------------12/14-12-12-14/15-14-14-
    3.---------14-13-14-13-------------------------------------------------------------7/6/7
    4.--14----------------------------------------------------------12-12-9/12-3-5-7
    เร็วหน่อย
    3.---9--9--9---9-9--9--9--9
    4.-7--9--7--------------8--7-9
    5.-------------9--7-9---
    ((อัพเดทคอร์ดกีต้าร์))
  • หำโต
    Guest
  • 21 ส.ค.2547,12:21น.
    1.--------------------------------------------------------------------------------------------------
    2.-----14------------------12/14-12-12-14/15-14-14-
    3.---------14-13-14-13-------------------------------------------------------------7/6/7
    4.--14----------------------------------------------------------12-12-9/12-3-5-7
    เร็วหน่อย
    3.---9--9--9---9-9--9--9--9
    4.-7--9--7--------------8--7-9
    5.-------------9--7-9---
    ((อัพเดทคอร์ดกีต้าร์))
  • tah
    Guest
  • 7 ก.ย.2547,19:23น.
    ขอ tab solo หน่อยครับ ๆๆๆๆๆๆๆๆๆๆๆๆๆๆๆๆๆๆๆๆๆๆๆๆๆๆๆๆๆๆๆๆๆๆๆๆๆๆๆๆๆๆๆๆๆๆๆๆๆๆๆๆๆๆๆๆๆๆๆๆๆๆๆๆๆๆๆๆๆๆๆๆๆๆๆๆๆๆๆๆๆๆๆๆๆๆๆๆๆๆๆๆๆๆๆๆๆๆๆๆๆๆ
    ((อัพเดทแหล่งทดลองฟัง)) ((อัพเดทคอร์ดกีต้าร์)) ((ขอคอร์ดกีต้าร์))
  • เด็วหาดใหญ่
    Guest
  • 4 ม.ค.2548,21:04น.
    เราว่าน่าจะเปลี่ยนจาก Bm เป็น Em มากกว่าน่ะ
  • เด็กลำปางกัลยาณี
    Guest
  • 2 มี.ค.2548,12:26น.
    1.--------------------------------------------------------------------------------------------------
    2.-----14------------------12/14-12-12-14/15-14-14-
    3.---------14-13-14-13-------------------------------------------------------------7/6/7
    4.--14----------------------------------------------------------12-12-9/12-3-5-7
    เร็วหน่อย
    3.---9--9--9---9-9--9--9--9
    4.-7--9--7--------------8--7-9
    5.-------------9--7-9---
  • AByssKaiser
    Guest
  • 29 พ.ค.2548,20:39น.
         Dmaj9                    C#m
    สองรัก ฉันรับไม่ไหว เธอมีหนึ่งใจ ให้ไปตั้ง
    Dmaj9 C#m
    สองรัก ทั้งเขาและฉัน ฝันไปหรือเธอ
    Dmaj9 C#m F#m
    มีใคร ยอมทนบ้างไหม ลืมตาตื่นมาสักทีเถอะ
    Bm Dm E
    สองหัวจิต หัวใจอย่างนี้ เลือกซักทีเถอะ เอา ( ซักทาง.... )
  • Want Experrien big (bass)
    Guest
  • 18 ก.พ.2549,23:26น.
    intro   tab bass 
    แต่ก่อนแต่ไรเข้าใจ ถ้าการเป็นคนรัก คือเรียนรู้กันและกัน
    หากที่ใครคนหนึ่งไม่ใช้ตัวจริง ก็คงต้องจากกัน เหมืองดังเรื่องกับฉัน
    1---------------------------------------------------------
    2---------------------------------------------------------
    3----5 5 5555--------------------------5 5 5555-----------------
    4---------------------5 5 5555 ----------------------5 5 5555----------------

    x คือโน้ตตัวโกส คือดีดโดยการเอานิ้วแต๊ะสาย
    1--------------------------------------------------
    2--------------------------------------------------
    3--------------------555x55---4---222x22x2---777x77x7
    4---555x55x5-----------------------------------------------

    1------------------------------------------------
    2------------------------------------------------
    3-------------------------------------------------------555x55-สไรด์นิ้ว--777----4----
    4--555x55x5---777x77x7---8---999x99x9

    1-------------------------------------------------
    2------------------------------------------------------------2-3-5
    3---444x44x4----------------222x22x2--444x44------------4---------------
    4------------------222x22x2-------------------------------

    1---------------------------------------------------
    2---------------------------------------------------
    3--444x44x4----------------22-22-2222222-------------------------------
    4-----------------222x22x2----------------------------------

    ฮุค
    1--------xxx----------xxx----------------------------------
    2-----7-xxx------7---xxx-------------------------------------
    3--5----xxx---5-----xxx--444----44---4--------------------
    4--------xxx----------xxx--------4-----4----------------

    1--------xxx----------xxx------------------------------------------
    2-----7-xxx------7--xxx----------------------------------------------
    3--5----xxx---5-----xxx---444-----44------4--------------------------------
    4--------xxx---------xxx----------4--------4-------------------------

    1--------xxx----------xxx--------------------------------------------------
    2-----7-xxx-------7-xxx------------------------------------------------------
    3--5----xxx----5-----xxx--444----------------22xx22----2-สไรด์-5555555----
    4--------xxx----------xxx----------4---2222-------------------------------------
    solo อันล้างนี้ ซ้ำ2ที
    1------------------------------------------------------------------
    2------------------------------------------------------------------
    3---------------------------------22-2222----55--5555------
    4---55-5555---00--0000---------------------------------
    ส่วนท่อนจบ เหมือน intro ที่เป็นแทบอันแรกสุดเลยคับ เออส่วนท่อนร้องปกติตอนที่จบsolo
    น่ะคับ มันจะบอกว่า "เธอบอกเหตุผลที่หยุดความรักระหว่างฉัน" ให้ดูtabที่ 4น่ะคับ
    แล้วก็ต่อเลื่อยๆๆๆ แล้วก่อนจะจบ"เลือกซะที่จะเอา" แล้วก็ต่อ"สองรักฉันรับไม่ไหว"
    เออแล้วก็จะบอกอย่างหนึ่งน่ะคับ tabที่ 6-8 น่ะคับ ไม่ต้องตกใจ ว่าอะไรคือxxx
    จะบอกความจิงให้ฟังน่ะ ผมอธิบายจะเข้าใจป่าวน่ะ คือว่า 5 7 น่ะคือดีด เหมือนดีด
    กีตาร์ แต่ดีด แค่ สาย 3กับ2 แล้ว xxx 4อันอ่ะน่ะก็โกส ก็วางนิ้วโดยไม่ต้องกดคอดร์
    เบสเลยวางเฉยๆๆๆๆๆอ่ะแต่ต้องวางนิ้วทั้ง4สายแต่ย้ำน่ะว่าห้ามกดเพราะมันจะเพี้ยน
    เลยละ แล้วดีดเหมือนกีตาร์เหมือนน่ะโกสตรงท่อนฮุกอ่ะ แต่โกสตัวอื่นน่ะไม่ต้องดีดเหมือนกีตาร์
    ล่ะ นี้อธิบายละเอียดเลยน่ะนี้ จากวง Want Experrien

  • golf
    Guest
  • 14 พ.ค.2549,03:34น.
    สองรัก       ZeAL
    SoLo~ ท่อนเเรก

    1 ; ------------------------------
    2 ;--------------------------------- 2รอบ
    3 ;---6---9---2---4----9---------
    4 ;---------------------------11---
    5 ;------------------------------
    6 ;------------------------------

    SoLo ท่อนกลางเพลง

    1 ;-------------------------------------------------------------------------------------------------
    2 ;---------14---12---14^---------------------------------------------------------------------
    3 ;---14----------------------7---2------------------------------------------------------------
    4 ;-------------------------------------4--5--7--12-11-12---9--7--6--4--2--4--6--7--9
    5 ;-----------------------------------------------------------------------------------------------
    6 ;-------------------------------------------------------------------------------------------------
    ต่อ
    1 ;-------------------------------------------------------------------------------
    2 ;----------------------------------17-----------------------------------------
    3 ;----------------------------12--------9---11--7--9--7--9--11--12--14
    4 ;--9--7--6--4--2--4--6----------------------------------------------------
    5 ;------------------------------------------------------------------------------
    6 ;------------------------------------------------------------------------------
  • P-เด็กวัด
    Guest
  • 30 พ.ค.2549,11:39น.
    1;-------------------------
    2;--6^--------------9^--
    3;-------7------8---------
    4;--------------------------
  • ตั้ว
    Guest
  • 23 พ.ย.2549,09:09น.
    Intro
    2--------->5---------5----- (2รอบ)
    3----4/6----2-4-4---4/6



    Solo
    2-------10-9-10--^12-12->^14-14--------------------------------------
    3--->9-------------------------------------->7-7-----2------------8-7-87--
    4---------------------------------------------------0-0--0-3>5>7------------

    2-12-0-10-0-9-0-------------------9-0-10-0-12-0
    3--------------------11-0-9-0-11-0
    4

    เด๋วมาต่อ
  • 25 ก.ค.2556,12:23น.
    สองรัก
    Asus2 Dsus2 Bm7 E
    แต่ก่อนแต่ไร เข้าใจ ว่าการเป็นคนรัก คือเรียนรู้กันและกัน
    Asus2 Bm7 C#m7 Dm7
    แต่ถ้าใครคนหนึ่ง ไม่ใช่ตัวจริง ก็คงต้องจากกัน เหมือนดังเรื่องเธอกับฉัน

    Instrument : D / A ( x2 )

    Asus2 Dsus2 Bm7 E
    ทนเจ็บและยอมรับมา เมื่อเธอได้เจอตัวจริง กว่าฉันถึงต้องไป
    Asus2 Bm7 C#m7 Dm7
    แต่มาวันนี้ เธอมีเรื่องราวมากมาย ที่ฟังไม่เข้าใจ ยิ่งฟังยิ่งทรมานฉัน

    C#m F#m Bm Dm
    * เธอบอกเหตุผลที่หยุดความรัก ระหว่างฉัน เพราะเธอไม่รู้ว่า จะรักเขามากกว่าไหม
    C#m F#m Bm E
    ตัวปลอมอย่างฉัน ก็ยังคงรัก บอกอย่างนี้ได้ไง อย่าปล่อยให้หวัง กันอีกเลย

    D C#m
    ** สองรัก ฉันรับไม่ไหว เธอมีหนึ่งใจ ให้ไปตั้ง
    D C#m
    สองรัก ทั้งเขาและฉัน ฝันไปหรือเธอ
    D C#m F#m
    มีใคร ยอมทนบ้างไหม ลืมตาตื่นมาสักทีเถอะ
    Bm Dm
    สองหัวจิต หัวใจอย่างนี้ เลือกซักทีเถอะ เอาซักทาง

    Solo: A / E / Bm / Dm ( x2 )

    Repeat ( * , ** , ** )

    Outro : D / A ( x4 )
  • 22 ก.ย.2557,01:35น.
    A               D  Bm
    แต่ก่อนแต่ไร เข้าใจว่าการเป็นคนรัก
     E7               A
    คือเรียนรู้กันและกัน
                       Bm
    แต่ถ้าใครคนนึงไม่ใช่ตัวจริง
       C#m           Dm
    ก็คงต้องจากกันเหมือนดังเรื่องเธอกับฉัน
    
    Solo: /A/E/(2 times)
    
     A                D      Bm             E7
    ทนเจ็บและยอมรับมา เมื่อเธอได้เจอตัวจริง
                          A
    กว่าฉันถึงต้องไป แต่มาวันนี้
                        Bm
    เธอมีเรื่องราวมากมาย
       C#m           D
    ที่ฟังไม่เข้าใจ ยิ่งฟังยิ่งทรมานฉัน
    
    
                C#m                        F#m
              *เธอบอกเหตุผลที่หยุดความรัก ระหว่างฉัน
                Bm                     Dm
               เพราะเธอไม่รู้ว่าเธอรักเขามากกว่าไหม
                C#m                      F#m           Bm
               ตัวปลอมอย่างฉัน ก็ยังคงรักบอกอย่างนี้ได้ไง
                                E7
               อย่าปล่อยให้หวังกันอีกเลย
    
       
                   A                    C#m
              **สองรัก ฉันรับไม่ไหว เธอมีหนึ่งใจให้ไปตั้ง
                   D                    C#m
                 สองรักทั้งเขาและฉัน ฝันไปหรือเธอ
                  A                  C#m            F#m
                 มีใครยอมทนบ้างไหม ลืมตาตื่นมาสักทีเถอะ
                  Bm
                 สองหัวจิตหัวใจอย่างนี้
                  Dm
                 เลือกสักทีเถอะ เอาซักทาง
    
    Solo: /A/E/Bm/D (2 times)
    
            (ซ้ำ *,**,**)
    
    Solo: /A/E (4 times)
1

ขอเชิญร่วมแสดงความคิดเห็นครับ

คลิกที่รูป เพื่อแทรกรูปลงในข้อความ
  • Member :
    username
    password
  • Not a member :
    name
    email