Loading

คอร์ดเพลง หนักใจ

ลาบานูน (Labanoon)

อัพโหลดคลิปเพลงนี้ที่คุณ ร้อง/เล่น ด้วยตัวคุณเอง ได้แล้ววันนี้
ระหว่างการทดสอบระบบหากพบข้อผิดพลาด กรุณาแจ้งที่นี่
Print

                                             อัลบั้ม : นมสด


Intro : C/Am/Em/G


C F
มองดูเธอในวันนี้ รู้ว่าไม่เหมือนเก่า
C G
แววตาเธอเงียบเหงา ไม่เหมือนเคย
C F
แม้ว่าเธอไม่บอกกัน แม้ว่าเธอไม่พูดเลย
C G
แต่ที่เธอนิ่งเฉย มันฟ้องใจเธอ
Am Em F C
มีความลับ ในหัวใจ ปิดไว้เธอไม่บอก
Dm E
ฉันดูออก ว่าเธอกำลังรักใคร

C Em Am
* อย่าเก็บมันไว้เลย รู้ว่าเธอหนักใจ
F G
ยิ่งนานเท่าไหร่ ยิ่งทรมาน
C Em Am
อย่าเก็บเอาไว้เลย คำร่ำลาที่เธอต้องการ
F G C G
ไม่รักไม่ต้องสงสาร พูดมันออกมา

C F
แม้ครั้งนี้ต้องเจ็บใจ ฉันคงต้องยินยอม
C G
ต้องทำใจให้พร้อม ยอมรับมัน

C F
เธอมีใครอย่าหลอกฉัน เธอจะไปให้พูดกัน
C G
หนึ่งคำเพียงเท่านั้น แค่นี้ก็พอ

Am Em F C
** คนๆ นั้น คงเฝ้ารอ ให้เธอ จงรีบไป
Dm E
ฉันเข้าใจ เมื่อเธอไม่รักกัน

( ซ้ำ * )

Instru : C / C6 / Cmaj7 / G

C/C6/Cmaj7/G
เธอ................เธอ................

( ซ้ำ ** , * 2 ครั้ง )

F G C
หากจะไป ให้พูดมันออกมา



http://www.musicatm.com/thai/คอร์ดเพลง-หนักใจ-ลาบานูน-(Labanoon)-815.html
ส่งเพลงนี้ให้เพื่อน
วันที่โพสต์ : 16 ธ.ค.2546,23:40น.
จำนวนผู้ชม : 163144 คน / แสดงความคิดเห็น : 43 ครั้ง
โพสต์โดย


จาก: Maiza
Guest
เพลงแนะนำ
เพลงฮิต
เลือกแสดงเฉพาะ :

  • พงษ์ โลโซ
    Guest
  • 28 ม.ค.2550,21:12น.

    1)---------------------------------------------------------------------------------------------------------
    2)---------------------------------------------------------------------------------------------------------
    3)----------5--7--7/10--9--0--7--5--0--4--5--5/7--5--7--7/9------------9/12--10--9--7-
    4)---3/5------------------------------------------------------------------5/7-5-----------------------
    5)---------------------------------------------------------------------------------------------------------
    6)---------------------------------------------------------------------------------------------------------
  • พงษ์ โลโซ
    Guest
  • 28 ม.ค.2550,21:12น.

    1)---------------------------------------------------------------------------------------------------------
    2)---------------------------------------------------------------------------------------------------------
    3)----------5--7--7/10--9--0--7--5--0--4--5--5/7--5--7--7/9------------9/12--10--9--7-
    4)---3/5------------------------------------------------------------------5/7-5-----------------------
    5)---------------------------------------------------------------------------------------------------------
    6)---------------------------------------------------------------------------------------------------------
  • 22 ก.ย.2557,01:35น.
    Intro: G C Am Em G
    
     C                    F                               C                             G
    มองดูเธอในวันนี้ รู้ว่าไม่เหมือนเก่า  แววตาเธอเงียบเหงา ไม่เหมือนเคย
    C                         F                                C                 G
    แม้ว่าเธอไม่บอกกัน แม้ว่าเธอไม่พูดเลย  แต่ที่เธอนิ่งเฉย มันฟ้องใจเธอ
    
             Am  Em        F      C          Dm            E
    มีความลับในหัวใจ ปิดไว้เธอไม่บอก  ฉันดูออก ว่าเธอกำลังรักใคร
    
                      C      Em      Am            F                 G
     * อย่าเก็บมันไว้เลย รู้ว่าเธอหนักใจ  ยิ่งนานเท่าไหร่ ยิ่งทรมาน
                       C      Em       Am                   F                G            C     G
        อย่าเก็บเอาไว้เลย คำร่ำลาที่เธอต้องการ  ไม่รักไม่ต้องสงสาร พูดมันออกมา
    
    C                          F                              C                       G
    แม้ครั้งนี้ต้องเจ็บใจ ฉันคงต้องยินยอม  ต้องทำใจให้พร้อม ยอมรับมัน
     C                             F                            C                     G
    เธอมีใครอย่าหลอกฉัน เธอจะไปให้พูดกัน  หนึ่งคำเพียงเท่านั้น แค่นี้ก็พอ
       
              Am   Em         F      C       Dm        E
    ** คนๆนั้นคงเฝ้ารอ ให้เธอจงรีบไป  ฉันเข้าใจ เธอไม่รักกัน
    
    (ซ้ำ *)
    
    Instru: C C C G (2 รอบ)
    
    (ซ้ำ **,*,*)
    
             F      G            C
    หากจะไป ให้พูดมันออกมา
1

ขอเชิญร่วมแสดงความคิดเห็นครับ

คลิกที่รูป เพื่อแทรกรูปลงในข้อความ
  • Member :
    username
    password
  • Not a member :
    name
    email