Loading

คอร์ดเพลง หลงกล

หิน เหล็ก ไฟ

อัพโหลดคลิปเพลงนี้ที่คุณ ร้อง/เล่น ด้วยตัวคุณเอง ได้แล้ววันนี้
ระหว่างการทดสอบระบบหากพบข้อผิดพลาด กรุณาแจ้งที่นี่
INTRO :    / E Bsus4/D# / Bsus4/C# Bsus4 /
/ Bsus4/A B7sus4 / A E /


E G#m
คำที่เธอบอก คำที่เธอหลอก
Am E
แยกไม่ออกจะเชื่อคำไหน
G#m
ใครก็เตือนอยู่ ว่าดูเธอให้แน่ใจ
Am E
แต่หูตามันลายแทบไม่รู้ตัว

D A E
* เธอใช้เพียงคำพูดไม่กี่คำ
D A B7
เธอทำให้คนใจง่ายต้องตายใจ
E G#m A B7
หลงกลเธอแล้วทำไงได้
E G#m A
จะถอนตัวแต่ใจมันไม่ยอมห่าง
E G#m A B7
หลงกลเธอแล้วคงต้องยอมเธอทุกอย่าง
F#m B7sus4 B F#m B7sus4 B
ลองดูอีกที เจ็บนี้ไม่ถึงตาย

E G#m
แม้จะเคยเจ็บ แม้จะเคยผ่าน
Am E
ใช่จะอ่านเธอได้เข้าใจ
G#m
เธอยังยืนยัน อย่ามองเธอในแง่ร้าย
Am E
เธอไม่ใช่ใครที่น่าหวั่นกลัว


( ซ้ำ * )

SOLO : / E / G#m / Am / E / ( 2 times )

( ซ้ำ * )

SOLO : / E Bsus4/D# / Bsus4/C# Bsus4 /
/ Bsus4/A B7sus4 / A / E /

ส่งเพลงนี้ให้เพื่อน
วันที่โพสต์ : 21 ธ.ค.2546,10:13น.
จำนวนผู้ชม : 250829 คน / แสดงความคิดเห็น : 55 ครั้ง
โพสต์โดย


จาก: Maiza
Guest
เพลงแนะนำ
เพลงฮิต
เลือกแสดงเฉพาะ :

  • กฤต
    Guest
  • 16 พ.ค.2549,14:00น.
    1 -------------------0-------------------------0-----------------------0-----------------------0------------
    
    2 ------------0--------0------0---------0------0-------0-------0------0----0-----------0----0-------0
    3 --11h13-----13-----13----9h11----11----11-----8h9----9-----9------6h8-----8------8-----

    1 ----------------0----------------------0------------------------0----------------------------------------
    2 -----------0------0----0--------0------0------0----------0---------0---------------------------------
    3 ----4h6----6-----6-----2h4-----4------4------1h2------2---------0h1-------------------
    4 -----------------------------------------------------------------------------------2
  • กฤต
    Guest
  • 16 พ.ค.2549,14:00น.
    1 -------------------0-------------------------0-----------------------0-----------------------0------------
    2 ------------0--------0------0---------0------0-------0-------0------0----0-----------0----0-------0
    3 --11h13-----13-----13----9h11----11----11-----8h9----9-----9------6h8-----8------8-----

    1 ----------------0----------------------0------------------------0----------------------------------------
    2 -----------0------0----0--------0------0------0----------0---------0---------------------------------
    3 ----4h6----6-----6-----2h4-----4------4------1h2------2---------0h1-------------------
    4 -----------------------------------------------------------------------------------2
  • guitar ไล่ วิญญาณ
    Guest
  • 22 มี.ค.2550,09:04น.

    ไปโหลดที่เว็บ หิน เหล็ก ไฟสิคับ

    1)------------------------------------------------------------------------
    2)------------------------------------------------------------------------
    3)--------11^--------11--11--------9--------9--11--------------------
    4)-------------------------------------------11-----------9h11-9-9------s14-------
    5)------------------------------------------------------------------------
    6)------------------------------------------------------------------------
    solo 2ห้องแรกคับ ไปโหลดเอาน่ะคับ
    www.stonemetalfire.com
  • Watt
    Guest
  • 9 ก.พ.2551,10:09น.


    Intro

    1)---------------0------------------------0------------------------ 0---------------------- 0-----------------
    2)----------0------0----------------0------0----------------0-------0---------------0------0--------------
    3)----8h9---9------9--------6h8---8------8--------4h6---6------6--------2h4---4------4-----------
    4)--------------------------------------------------------------------------------------------------------------
    5)----7------------------------6------------------------4------------------------2---------------------------
    6)--------------------------------------------------------------------------------------------------------------


    1)---------------0------------------------0-------------------------0----------------------0---------------------
    2)----------0------0----------------0------0-----------------0-------0------------------------------------------
    3)----4h6---6------6--------2h4---4------4--------1h2----2--------2--------0h2-------------------------
    4)-------------------------------------------------------------------------------------------------------------------
    5)----0------------------------2------------------------0---------------------------0-----------------------------
    6)-------------------------------------------------------------------------------------------0----------------------

    คอร์ดที่ท่านอื่นๆโพสไว้ถูกแล้วครับแต่ต้องวางตำแหน่งให้ถูกกับเนื้อร้องมากกว่านี้ คนที่เล่นใหม่ๆอาจจะยังไม่รู้ว่าต้องวางตำแหน่งอย่างไร ก็ร้องนึกถึงร้อยแก้วและร้อยกรองที่ผู้แต่งจะใช้คำที่สอดคล้องกัน(พ้องรูปหรือพ้องเสียง)ในวรรคต่อไป คอร์ด(ส่วนมาก)ก็จะลงตำแหน่งตรงคำนั้นๆ

1

ขอเชิญร่วมแสดงความคิดเห็นครับ

คลิกที่รูป เพื่อแทรกรูปลงในข้อความ
  • Member :
    username
    password
  • Not a member :
    name
    email