Loading

คอร์ดเพลง หวั่นไหว

บอดี้สแลม (Bodyslam)

อัพโหลดคลิปเพลงนี้ที่คุณ ร้อง/เล่น ด้วยตัวคุณเอง ได้แล้ววันนี้
ระหว่างการทดสอบระบบหากพบข้อผิดพลาด กรุณาแจ้งที่นี่
Print
Artist : บอดี้สแลม (Bodyslam)
Album : Drive
Title : หวั่นไหว

รู้ก็ทั้งรู้ว่าเธอเป็นใคร และฉันก็ไม่คิดจะปีนขึ้นไป
คงไม่มีทางจะเป็นไปได้ ก็เรานั้นมันต่างกัน
ทำได้แค่เพียงเจียมตัวมันไปวันๆ ฉันเข้าใจ

แต่ฉันก็ไม่รู้เพราะความบังเอิญ หรืออันที่จริงฉันนั้นจงใจ
เวลาที่เธอมายืนใกล้ๆ ก็ยังเผลอไปสบตา
รู้ก็ทั้งรู้ว่าคงไม่มีปัญญา คงไม่มีหวัง

/// ไม่อยากจะเหลียวมอง ฉันคอยบอกตัวเอง แต่ยังทำไม่ได้
/// ไม่อยากจะสนใจ ก็รู้ว่าไม่มีทาง แต่ก็ไม่รู้ต้องทำอย่างไร
///
////// อดใจไม่ไหวเมื่อได้พบหน้า ยิ่งเธอส่งยิ้มคืนมายิ่งหวั่นไหว
////// ยังเป็นอย่างนี้อยู่ทุกวัน ฉันต้องคอยหักห้ามใจ
////// อดใจไม่ไหวทุกทีที่เจอ เพียงแค่แอบเผลอมองตาจะผิดไหม
////// เก็บเอาไปฝันอยู่ทุกคืน ฉันต้องทำตัวเช่นไร ช่วยบอกได้ไหมเธอ

/// , //////

ช่วยบอกได้ไหมเธอ
http://www.musicatm.com/thai/คอร์ดเพลง-หวั่นไหว-บอดี้สแลม-(Bodyslam)-574.html
ส่งเพลงนี้ให้เพื่อน
วันที่โพสต์ : 11 ต.ค.2546,11:09น.
จำนวนผู้ชม : 407649 คน / แสดงความคิดเห็น : 197 ครั้ง
โพสต์โดย


จาก: เว็บมาสซาเตอร์
เข้าร่วม: 9 ปีก่อน
เพลง: 0
โพสต์: 218
เพลงแนะนำ
เพลงฮิต
เลือกแสดงเฉพาะ :

  • unknow
    Guest
  • 16 ต.ค.2546,19:56น.
    Artist : บอดี้สแลม (Bodyslam)
    
    Album : Drive
    Title : หวั่นไหว

    อินโทร - E/E/A/A [3times]

    E
    รู้ก็ทั้งรู้ว่าเธอเป็นใคร และฉันก็ไม่คิดจะปีนขึ้นไป
    C#m A
    คงไม่มีทางจะเป็นไปได้ ก็เรานั้นมันต่างกัน
    B
    ทำได้แค่เพียงเจียมตัวมันไปวันๆ ฉันเข้าใจ

    E
    แต่ฉันก็ไม่รู้เพราะความบังเอิญ หรืออันที่จริงฉันนั้นจงใจ
    C#m A
    เวลาที่เธอมายืนใกล้ๆ ก็ยังเผลอไปสบตา
    B
    รู้ก็ทั้งรู้ว่าคงไม่มีปัญญา คงไม่มีหวัง

    /// A G#m F#m G#m
    /// ไม่อยากจะเหลียวมอง ฉันคอยบอกตัวเอง แต่ยังทำไม่ได้
    /// A G#m F#m A B
    /// ไม่อยากจะสนใจ ก็รู้ว่าไม่มีทาง แต่ก็ไม่รู้ต้องทำอย่างไร
    ///
    ////// E C#m
    ////// อดใจไม่ไหวเมื่อได้พบหน้า ยิ่งเธอส่งยิ้มคืนมายิ่งหวั่นไหว
    ////// A F#m B
    ////// ยังเป็นอย่างนี้อยู่ทุกวัน ฉันต้องคอยหักห้ามใจ
    //////
    ///////// E C#m
    ///////// อดใจไม่ไหวทุกทีที่เจอ เพียงแค่แอบเผลอมองตาจะผิดไหม
    ///////// A F#m B E
    ///////// เก็บเอาไปฝันอยู่ทุกคืน ฉันต้องทำตัวเช่นไร ช่วยบอกได้ไหมเธอ

    โซโล่ - E/E/C#m/C#m/A/A/B/B/E/E/A/A/E/E/A/A
    ((อัพเดทคอร์ดกีต้าร์))
  • unknow
    Guest
  • 16 ต.ค.2546,19:56น.
    Artist : บอดี้สแลม (Bodyslam)
    
    Album : Drive
    Title : หวั่นไหว

    อินโทร - E/E/A/A [3times]

    E
    รู้ก็ทั้งรู้ว่าเธอเป็นใคร และฉันก็ไม่คิดจะปีนขึ้นไป
    C#m A
    คงไม่มีทางจะเป็นไปได้ ก็เรานั้นมันต่างกัน
    B
    ทำได้แค่เพียงเจียมตัวมันไปวันๆ ฉันเข้าใจ

    E
    แต่ฉันก็ไม่รู้เพราะความบังเอิญ หรืออันที่จริงฉันนั้นจงใจ
    C#m A
    เวลาที่เธอมายืนใกล้ๆ ก็ยังเผลอไปสบตา
    B
    รู้ก็ทั้งรู้ว่าคงไม่มีปัญญา คงไม่มีหวัง

    /// A G#m F#m G#m
    /// ไม่อยากจะเหลียวมอง ฉันคอยบอกตัวเอง แต่ยังทำไม่ได้
    /// A G#m F#m A B
    /// ไม่อยากจะสนใจ ก็รู้ว่าไม่มีทาง แต่ก็ไม่รู้ต้องทำอย่างไร
    ///
    ////// E C#m
    ////// อดใจไม่ไหวเมื่อได้พบหน้า ยิ่งเธอส่งยิ้มคืนมายิ่งหวั่นไหว
    ////// A F#m B
    ////// ยังเป็นอย่างนี้อยู่ทุกวัน ฉันต้องคอยหักห้ามใจ
    //////
    ///////// E C#m
    ///////// อดใจไม่ไหวทุกทีที่เจอ เพียงแค่แอบเผลอมองตาจะผิดไหม
    ///////// A F#m B E
    ///////// เก็บเอาไปฝันอยู่ทุกคืน ฉันต้องทำตัวเช่นไร ช่วยบอกได้ไหมเธอ

    โซโล่ - E/E/C#m/C#m/A/A/B/B/E/E/A/A/E/E/A/A
    ((อัพเดทคอร์ดกีต้าร์))
  • tos_guitarsiam
    Guest
  • 18 พ.ย.2546,02:54น.
    solo
    1-----------------------------------------------------------------------
    2-----------------------------------------------------------------------
    3-----------------------------------------------------------------4----
    4--x-x-4-6-4-6-4-6-4-6-4----x-x-4-6-4-6-4-6-4-6----------
    5-----------------------------------------------------------------------
    6-----------------------------------------------------------------------
    เล่น วนไปเรื่อยๆๆๆ
    ((อัพเดทคอร์ดกีต้าร์))
  • คนจร
    Guest
  • 10 มิ.ย.2547,15:36น.
    inTro  หวั่นไหว
    1-------------0----------------|--------------------0---------------------
    2------------------------------|-----------------------------------------
    3------------------------------|-----------------------------------------
    4---------8--------8----------|--------------8----------8----------------
    5-----9-----------------9-----|---------9-------------------9-----------
    6------------------------------|----------------------------------------


    1--------------0--------------|----------------------------------------
    2------------------------------|-------------7--------9------------------
    3------------------------------|---------------------------8---9--------
    4----------8-------8----------|--------8--------------------------------
    5------9---------------9------|----9------------------------------------
    6------------------------------|----------------------------------------

    ถ้าเกะผิดก็อย่าว่ากันน๊า
    ((อัพเดทคอร์ดกีต้าร์))
  • เด็กหงษ์
    Guest
  • 11 ก.ค.2547,17:12น.
    1---------------------------------------I-------------------------------------------
    2---------------------4--5--4--------I---------------------4--5---4----------
    3------2-----2/4----------------4--I--------2---2/4-------------------4-----

    1---------------------------------------I-------------------------------------
    2---------------------4--5--4--------I---------------------4--5-----------
    3------2-----2/4----------------4--I--------2---2/4-------------------

    ชัวว์
    ((อัพเดทคอร์ดกีต้าร์))
  • Bo_yS
    Guest
  • 20 ก.ค.2547,12:27น.
    Intro  หวั่นไหว
    1------------------------------|------------------------------------
    2------------------------------|------------------------------------
    3----------9-10-9-----------|----------9-10-9-----------------
    4--9~10---------10--------|--9~10---------10--------------
    5------------------------------|------------------------------------
    6------------------------------|------------------------------------


    1------------------------------|------------------------------------
    2------------------------------|---------------------10-----------
    3----------9-10-9-----------|--------------9-12-----12-------
    4--9~10---------10--------|--9~10--------------------------
    5------------------------------|-----------------------------------
    6------------------------------|-----------------------------------

    key E

    น่าจะ OK
    ((อัพเดทคอร์ดกีต้าร์))
  • 19 มิ.ย.2548,21:25น.
    1------------------0----------------------------------
    2---------------4------4-------------------------------
    3--------2~4-------------4--------------------------
    ลองแกะดู เล่นวนไปเรื่อยๆอ่ะ น่าจะเหมือนนะ ลองดู
    คงใช่หละ
  • 10 ส.ค.2548,18:13น.
    1| --------------------------
    2| --------------------------
    3| -----------8^9^--------
    4| ---5h9----------9^----
    5| --------------------------
    6| --------------------------

    1| --------------------------
    2| --------------------------
    3| -----------8^9^--------
    4| ---5h9----------9^----
    5| --------------------------
    6| --------------------------

    1| --------------------------
    2| --------------------------
    3| -----------8^9^--------
    4| ---5h9----------9^----
    5| --------------------------
    6| --------------------------
  • แจ๊ก สามเสน
    Guest
  • 24 พ.ย.2548,16:47น.
    ตอนนี้บอดี้ไม่ใช่บอดี้

    อย่าเรียก"พี่ตูน บอดี้แสลม" "พี่ชัช บอดี้แสลม" "พี่ยอด บอดี้แสลม" "พี่ปิ๊ด บอดี้แสลม"

    วันนี้เหลือเพียง"พี่เภา บอดี้แสลม"

    " E B C#m A E
    ยังไงก็ยังติดพื้น ยังยืนยังเดินแบบฉัน ใครที่เค้ามีปีกพร้อมจะบินคงให้เค้าบินไป
    B C#m A B E
    เกินมาเป็นคนเดินช้า ก็ไม่ขอทำตามอย่างใคร ฝันไม่ใหญ่เกินตัว "

    มีใครรู้มั่ง เพลงซ้ำไปซ้ำมา ที่จิงเนื้อเป็นแบบนี้
    C Am
    "เจ็บปวดที่เภาคนนี้ยังเป็นคนเดิมที่มันเป็นเหมือนเดิม
    Dm G
    ยังจะร้องแนว..บอร์ดี้เท่านั้น
    C Am
    ต้องเจ็บกับหวังลมๆว่าเราจะกลับมาร่วมวง
    Dm G C
    แต่ก็รู้.. ไม่มีแล้ว.. บอร์ดี้ แสลม...................."



    อยากเห็นบอดี้แสลมในแบบบอดี้แสลมอีกครั้ง
  • มือกีต้าร์ วง เอ๊กคาลิเบอร์
    Guest
  • 25 ธ.ค.2548,14:37น.
    อันนี้แท็บเบส ตรง ก็เรานั้นมันต่างกัน และก็ ก็ยังเผลอไปสบตา
    สาย 4(E) --5--4---2---4---5----------------
    แล้ว ก็ ตอนจบท่อน ฉันเข้าใจ
    สาย 2------------2------------2---
    สาย 3---2---4--------2---4------ แล้วก็รูดสาย ไป E
    *ตอนจบฉันเข้าใจให้เล่นไวๆหน่อยนะครับ
  • เป้า คนเดินคนฟ้า
    Guest
  • 18 พ.ค.2549,14:31น.
    Artist : บอดี้สแลม (Bodyslam)
    Album : Drive
    Title : หวั่นไหว

    อินโทร - E/E/A/A [3times]

    E
    รู้ก็ทั้งรู้ว่าเธอเป็นใคร และฉันก็ไม่คิดจะปีนขึ้นไป
    C#m A
    คงไม่มีทางจะเป็นไปได้ ก็เรานั้นมันต่างกัน
    B
    ทำได้แค่เพียงเจียมตัวมันไปวันๆ ฉันเข้าใจ

    E
    แต่ฉันก็ไม่รู้เพราะความบังเอิญ หรืออันที่จริงฉันนั้นจงใจ
    C#m A
    เวลาที่เธอมายืนใกล้ๆ ก็ยังเผลอไปสบตา
    B
    รู้ก็ทั้งรู้ว่าคงไม่มีปัญญา คงไม่มีหวัง

    /// A G#m F#m G#m
    /// ไม่อยากจะเหลียวมอง ฉันคอยบอกตัวเอง แต่ยังทำไม่ได้
    /// A G#m F#m A B
    /// ไม่อยากจะสนใจ ก็รู้ว่าไม่มีทาง แต่ก็ไม่รู้ต้องทำอย่างไร
    ///
    ////// E C#m
    ////// อดใจไม่ไหวเมื่อได้พบหน้า ยิ่งเธอส่งยิ้มคืนมายิ่งหวั่นไหว
    ////// A F#m B
    ////// ยังเป็นอย่างนี้อยู่ทุกวัน ฉันต้องคอยหักห้ามใจ
    //////
    ///////// E C#m
    ///////// อดใจไม่ไหวทุกทีที่เจอ เพียงแค่แอบเผลอมองตาจะผิดไหม
    ///////// A F#m B E
    ///////// เก็บเอาไปฝันอยู่ทุกคืน ฉันต้องทำตัวเช่นไร ช่วยบอกได้ไหมเธอ

    โซโล่ - E/E/C#m/C#m/A/A/B/B/E/E/A/A/E/E/A/A

  • หมู~~~สุทธิสาร ฮ่าๆๆๆ
    Guest
  • 11 ต.ค.2549,23:39น.


    อดใจไม่ไหวทุกทีที่เจอ เพียงแค่แอบเผลอมองตา........
    1-------------------------------------------------------
    2------------------------9--12--9------9------------
    3------------------5/9-------------11-----9---------
    4-------------------------------------------------------

  • 123
    Guest
  • 31 ต.ค.2549,12:49น.

    อินโทร - E/E/A/A [3times]

    E
    รู้ก็ทั้งรู้ว่าเธอเป็นใคร และฉันก็ไม่คิดจะปีนขึ้นไป
    C#m A
    คงไม่มีทางจะเป็นไปได้ ก็เรานั้นมันต่างกัน
    B
    ทำได้แค่เพียงเจียมตัวมันไปวันๆ ฉันเข้าใจ

    E
    แต่ฉันก็ไม่รู้เพราะความบังเอิญ หรืออันที่จริงฉันนั้นจงใจ
    C#m A
    เวลาที่เธอมายืนใกล้ๆ ก็ยังเผลอไปสบตา
    B
    รู้ก็ทั้งรู้ว่าคงไม่มีปัญญา คงไม่มีหวัง

    /// A G#m F#m G#m
    /// ไม่อยากจะเหลียวมอง ฉันคอยบอกตัวเอง แต่ยังทำไม่ได้
    /// A G#m F#m A B
    /// ไม่อยากจะสนใจ ก็รู้ว่าไม่มีทาง แต่ก็ไม่รู้ต้องทำอย่างไร
    ///
    ////// E C#m
    ////// อดใจไม่ไหวเมื่อได้พบหน้า ยิ่งเธอส่งยิ้มคืนมายิ่งหวั่นไหว
    ////// A F#m B
    ////// ยังเป็นอย่างนี้อยู่ทุกวัน ฉันต้องคอยหักห้ามใจ
    //////
    ///////// E C#m
    ///////// อดใจไม่ไหวทุกทีที่เจอ เพียงแค่แอบเผลอมองตาจะผิดไหม
    ///////// A F#m B E
    ///////// เก็บเอาไปฝันอยู่ทุกคืน ฉันต้องทำตัวเช่นไร ช่วยบอกได้ไหมเธอ

    โซโล่ - E/E/C#m/C#m/A/A/B/B/E/E/A/A/E/E/A/A
    อันนี้แท็บเบส ตรง ก็เรานั้นมันต่างกัน และก็ ก็ยังเผลอไปสบตา
    สาย 4(E) --5--4---2---4---5----------------
    แล้ว ก็ ตอนจบท่อน ฉันเข้าใจ
    สาย 2------------2------------2---
    สาย 3---2---4--------2---4------ แล้วก็รูดสาย ไป E
    *ตอนจบฉันเข้าใจให้เล่นไวๆหน่อยนะครับ
  • สุดยอด
    Guest
  • 18 ธ.ค.2549,11:38น.
    5-----9-----9-9------86----------6995---------5998-------------47989----------+9
    ---5------5-------55-----------8----------59
  • กรีซ
    Guest
  • 18 ก.พ.2550,08:35น.

    Solo นะครับ

    1----------------------------------------------------------------------------------
    2----------------------------------------------------------------------------------
    3---11-13-11-13--11-13-13-11-------------------------------------------

    1----------------------------------------------------------------------------------
    2----------------------------12--------------------------------------------------
    3-11-13-11-13-11-13-------------------------------------------------------


    วนไปนะครับ
  • กรีซ
    Guest
  • 15 มี.ค.2550,21:01น.

    ใส่ให้ใหม่หมดเลยโทษทีผมแกะผิดกระทันหัน
    Intro
    1-------0-----------0-------2--4--
    2----4----4-----4----4--4---------
    3--4--------4-4--------4----------

    Solo
    4II-4-6--4-6--4-6-4---4-6-4-6-4/7---------

    กีต้าแทรก"อดใจไม่ไหวทุกทีที่เจอ

    1II-----------7-----------------------------------
    2II-5--7--9---9-7-9-5------------------------

    แทรกตอน"ชั้นต้องทำตัวเช่นไร
    1II-1-1-----1----1-1-----1--------------------------
    2II------4-----4-------4------------------------------
    3II---------4----4--------4---------------------------

    ท่อน ไม่อยากจะเหลียวมอง

    จับตามคอร์ดแล้วดีดแต่4สายล่างนะครับกีต้าโปร่งแกะนะถ้ากีต้าไฟก็ใช้เอฟเฟคได้

  • กรีซ
    Guest
  • 16 มี.ค.2550,10:21น.

    โทษทีผิดอีกและอันถูก100%
    ใส่ให้ใหม่หมดเลยโทษทีผมแกะผิดกระทันหัน
    Intro
    1-------0-----------0-------2--4--
    2----4----4-----4----4--4---------
    3--4--------4-4--------4----------

    Solo
    4II-4-6--4-6--4-6-4-6-4----4-6-4-6-4-6-4-6/9-----------

    กีต้าแทรก"อดใจไม่ไหวทุกทีที่เจอ

    1II-----------7-----------------------------------
    2II-5--7--9---9-7-9-5------------------------

    แทรกตอน"ชั้นต้องทำตัวเช่นไร
    1II-2-2-----2----2-2-----2--------------------------
    2II------4-----4-------4------------------------------
    3II---------4----4--------4---------------------------

    ท่อน ไม่อยากจะเหลียวมอง

    จับตามคอร์ดแล้วดีดแต่4สายล่างนะครับกีต้าโปร่งแกะนะถ้ากีต้าไฟก็ใช้เอฟเฟคได้

  • อ๋อง-Yakeemoo
    Guest
  • 18 มี.ค.2550,17:42น.

    อินโทร 0.00
    1-----------0--------------------0------------------0------------------2----4---------------------
    2-------4------4------------4-------4-----------4-----4-----------4----------5---4-----------
    3--4----------------4----4------------4-----4-----------4-----4-----------------------4---------


    2.00
    2--------------------12--------------------------------------------
    3---11----- 13----------------13-----11------13-------------9


    2.38 SoLo

    4---------4H6-------4H6-------4H6-------4H6--------4

    4---------4H6-------4H6-------4H6-------4H6--------4

    4---------4H6-------4H6-------4H6-------4H6--------4

    4----------------------------------------------------------------4
    3---------4H6-------4H6-------4H6-------4H6--------

    4---------4H6-------4H6-------4H6-------4H6--------4

    4----------------------------------------------------------------4
    3---------4H6-------4H6-------4H6-------4H6--------


    H=อัมเม่อออน

    ดุออกป่ะครับ 55555
    ไม่รู้ถูกเปล่านะก็ลองดูก็แล้วกัน
  • -๑-Evil~
    Guest
  • 18 มี.ค.2550,22:57น.

    Intro/E/E/A/A

    1>----------------------------------ll---------------------------------------------
    2>----------------------------------ll---------------------------------9----------
    3>-----------------8--9--8--------ll------------------8----11------------9----
    4>----7สไลด์-9---------------9---ll---7สไลด์-9-------------------------------
    5>----------------------------------ll---------------------------------------------
    6>----------------------------------ll---------------------------------------------
  • โซดา
    Guest
  • 20 มี.ค.2550,15:25น.

    Intro
    1--------0--------------0-------------0-------------2--4------------
    2-----4----4--------4----4-------4----4-------4---------5--4-----
    3--4---------4---4---------4--4---------4--4-------------------4--
    4-----------------------------------------------------------------------
    5-----------------------------------------------------------------------
    6-----------------------------------------------------------------------

    Guitar Track อดใจไม่ไหวทุกทีที่เจอ
    1------------11---------------------
    2--11--13-----13--11--13--9--
    3------------------------------------
    4------------------------------------
    5------------------------------------
    6------------------------------------

    Solo (จะมีทั้งหมด 8 รอบ)
    1---------------------------------
    2---------------------------------
    3---------------------------------
    4--4-6--4-6--4-6--4-6--4---
    5---------------------------------
    6---------------------------------
    (เล่น 3 รอบแรก, รอบที่ 5, 7, 8)

    1--------------------------------
    2--------------------------------
    3----------------------------4--
    4--4-6--4-6--4-6--4-6------
    5--------------------------------
    6--------------------------------
    (เล่นรอบที่ 4, 6)

    ชัวร์ไปดูคอนเสิร์ตมาแล้ว 100%


  • Bodyslam
    Guest
  • 1 เม.ย.2550,11:43น.

    vอันนี้เนียนครับ ขึ้น คอนเสริต มาหลายรอบแล้วครับ
    Tab Guitar
    1>-------------0-----------------------0-------------------------0---------------------------------------
    2>---------4------4---------------4-------4----------------4-------4--------------4---5---7----------
    3>-2/4---------------4---2/4----------------4----2/4----------------4---2/4-----------------------
    4>----------------------------------------------------------------------------------------------------------
    5>----------------------------------------------------------------------------------------------------------
    6>----------------------------------------------------------------------------------------------------------

    อดใจไม่ไหว ทุกทีที่เจอ
    1>-------------7------------------------------------------------------------
    2>--7----9---------9----7-----9------------------------------------------
    3>--------------------------------------9-----------------------------------

    Solo
    4>--4---6---4---6--4---6---4----6----4--(3รอบ)----4--6---4---6---4--6---4--6---9-----
    4>--4---6---4---6---4---6--4---6---4----6--4----6--4---6--4---6---4-----9--------------
    4>--4---6----4---6---4----6----4----6----4------4---6-----4---6---4---6----4-------------

    ท่อนแรกนะ
    รู้ ก็ ทั้งรู้ ว่าเธอเป็นใคร...... ตีคอร์ดธรรมดานะ E C#m A
    ตอน แต่ชั้นก็ไม่รู้เพราะความบังเอิญ ใช้ Effectนะ จับPower Cord E C#m A
    ใช้จังหวะ E-ลง ลง ลง ลง ลง C#m ลง ลง ลง ลง ลง...เรื่อยๆ
    Power Cordคือ?? คือการจับสายคู่EคือจับจุดEสาย5 แล้ว นั้วก้อยจับจุดAที่สาย4
    พอถึงท่อน ไม่อยากจะเหลียว ....มอง ปิดเอฟเฟคแล้วดีดลงทีเดียวนะ
    จนถึงก็รู้ว่าไม่มีทางค่อยเปิด
    เล่นจังหวะเดียวทั้งเพลง ฟังๆเอาแกะไม่ยกาหรอกครับ ฝึกเอา อย่าดูแท๊ปอย่างเดียว
    Tabไม่ช่วยให้ฝีมือเราดีขึ้นหรอก
    อาจงงไปนิดนะฝึกเอาอันไหนไม่เนียนaddมา attapuns_34hotmail.com
  • เข่งปลาทู
    Guest
  • 22 พ.ค.2550,04:00น.
    Artist : บอดี้สแลม (Bodyslam)
    Album : Drive
    Title : หวั่นไหว

    อินโทร - E/E/A/A [3times]

    E
    รู้ก็ทั้งรู้ว่าเธอเป็นใคร และฉันก็ไม่คิดจะปีนขึ้นไป
    C#m A
    คงไม่มีทางจะเป็นไปได้ ก็เรานั้นมันต่างกัน
    B
    ทำได้แค่เพียงเจียมตัวมันไปวันๆ ฉันเข้าใจ

    E
    แต่ฉันก็ไม่รู้เพราะความบังเอิญ หรืออันที่จริงฉันนั้นจงใจ
    C#m A
    เวลาที่เธอมายืนใกล้ๆ ก็ยังเผลอไปสบตา
    B
    รู้ก็ทั้งรู้ว่าคงไม่มีปัญญา คงไม่มีหวัง

    A G#m F#m G#m
    * ไม่อยากจะเหลียวมอง ฉันคอยบอกตัวเอง แต่ยังทำไม่ได้
    A G#m F#m A B
    ไม่อยากจะสนใจ ก็รู้ว่าไม่มีทาง แต่ก็ไม่รู้ต้องทำอย่างไร

    E C#m
    อดใจไม่ไหวเมื่อได้พบหน้า ยิ่งเธอส่งยิ้มคืนมายิ่งหวั่นไหว
    A F#m B
    ยังเป็นอย่างนี้อยู่ทุกวัน ฉันต้องคอยหักห้ามใจ

    E C#m
    อดใจไม่ไหวทุกทีที่เจอ เพียงแค่แอบเผลอมองตาจะผิดไหม
    A F#m B
    เก็บเอาไปฝันอยู่ทุกคืน ฉันต้องทำตัวเช่นไร
    E
    ช่วยบอกได้ไหมเธอ

    โซโล่ - E/E/C#m/C#m/A/A/B/B/E/E/A/A/E/E/A/A
    (*)
    outro - E/E/C#m/C#m/A/A/B/B/E/E/A
    โอ๊ะ โอ๊ โอ๊ช่วยบอกได้มั้ยเธอ.. . .
  • กีต้าร์ไฟ
    Guest
  • 29 มิ.ย.2550,22:26น.

    sexy
    D
    1|-2-2-0-2--3-2-0-2-----
    2|-3--------------------------
    3|-2--------------------------
    เพลงนี้สามารถเล่นเส้น 1 เส้นเดียวก็ได้
  • ว๊อสสส
    Guest
  • 21 พ.ย.2550,21:52น.


    intro นะครับ

    A

    1>-------0-----------0---------
    2>-----2--2-------2---2-------
    3>--2-------2---2-------2----- 2 รอบครับ
    4>--2----------------------------
    5>--0----------------------------
    6>--0----------------------------

    ลองดูนะครับ
  • 14 ธ.ค.2556,12:23น.
    หวั่นไหว
    Intro : E / E / A / A ( x3 )

    E
    รู้ก็ทั้งรู้ว่าเธอเป็นใคร และฉันก็ไม่คิดจะปีนขึ้นไป
    C#m A
    คงไม่มีทางจะเป็นไปได้ ก็เรานั้นมันต่างกัน
    A B
    ทำได้แค่เพียงเจียมตัวมันไปวันๆ ฉันเข้าใจ

    E
    แต่ฉันก็ไม่รู้เพราะความบังเอิญ หรืออันที่จริงฉันนันจงใจ
    C#m A
    เวลาที่เธอมายืนใกล้ๆ ก็ยังเผลอไปสบตา
    A B
    รู้ก็ทั้งรู้ว่าคงไม่มีปัญญา ก็คงไม่มีหวัง

    A G#m F#m G#m
    * ไม่อยากจะเหลียวมอง ฉันคอยบอกตัวเอง แต่ยังทำไม่ได้
    A G#m F#m G#m A B
    ไม่อยากจะสนใจ ก็รู้ว่าไม่มีทาง แต่ก็ไม่รู้ต้องทำอย่างไร

    E C#m
    ** อดใจไม่ไหวเมื่อได้พบหน้า ยิ่งเธอส่งยิ้มคืนมา ยิ่งหวั่นไหว
    A F#m B
    ยังเป็นอย่างนี้อยู่ทุกวัน ฉันต้องคอยหักห้ามใจ (หยุดหักใจไม่ได้ หยุดห้ามใจไม่ได้)

    E C#m
    *** อดใจไม่ไหวทุกทีที่เจอ เพียงแค่แอบเผลอมองตา จะผิดไหม
    A F#m B
    เก็บเอาไปฝันอยู่ทุกคืน ฉันต้องทำตัวเช่นไร ช่วยบอกได้ไหมเธอ

    Instrument : E / E / C#m / C#m / A / A / B / B
    Solo : E / E / A / A ( x2 )

    Repeat ( * , ** , *** )

    Intro : E / E / A / A

    ช่วยบอกได้ไหมเธอ

    Outro : E / E / A / A
    E / E - F#m - G#m - Am - - G#m - Am
  • 22 ก.ย.2557,01:35น.
    Intro - E/E/A/A (3 times)
    
    E
    รู้ก็ทั้งรู้ว่าเธอเป็นใคร และฉันก็ไม่คิดจะปีนขึ้นไป 
    C#m                             A
    คงไม่มีทางจะเป็นไปได้ ก็เรานั้นมันต่างกัน 
                                                               B
    ทำได้แค่เพียงเจียมตัวมันไปวันๆ ฉันเข้าใจ 
         E
    แต่ฉันก็ไม่รู้เพราะความบังเอิญ หรืออันที่จริงฉันนั้นจงใจ 
    C#m                              A
    เวลาที่เธอมายืนใกล้ๆ ก็ยังเผลอไปสบตา 
                                                     B
    รู้ก็ทั้งรู้ว่าคงไม่มีปัญญา คงไม่มีหวัง
    
    ///                    A    G#m          F#m          G#m
    /// ไม่อยากจะเหลียวมอง ฉันคอยบอกตัวเอง แต่ยังทำไม่ได้ 
    ///                 A G#m   F#m               A                 B 
    /// ไม่อยากจะสนใจ ก็รู้ว่าไม่มีทาง แต่ก็ไม่รู้ต้องทำอย่างไร 
    ///
    
    //////               E                                    C#m
    ////// อดใจไม่ไหวเมื่อได้พบหน้า ยิ่งเธอส่งยิ้มคืนมายิ่งหวั่นไหว 
    //////                   A             F#m                              B
    ////// ยังเป็นอย่างนี้อยู่ทุกวัน           ฉันต้องคอยหักห้ามใจ 
    //////
    /////////                E                                   C#m
    ///////// อดใจไม่ไหวทุกทีที่เจอ เพียงแค่แอบเผลอมองตาจะผิดไหม
    /////////               A                F#m                         B                    E
    ///////// เก็บเอาไปฝันอยู่ทุกคืน         ฉันต้องทำตัวเช่นไร ช่วยบอกได้ไหมเธอ
    
    Solo - E/E/C#m/C#m/A/A/B/B/E/E/A/A/E/E/A/A
  • 22 ก.ย.2557,01:35น.
    Intro - E/E/A/A 3times
    
    E
    รู้ก็ทั้งรู้ว่าเธอเป็นใคร และฉันก็ไม่คิดจะปีนขึ้นไป 
    C#m                             A
    คงไม่มีทางจะเป็นไปได้ ก็เรานั้นมันต่างกัน 
                                                               B
    ทำได้แค่เพียงเจียมตัวมันไปวันๆ ฉันเข้าใจ 
         E
    แต่ฉันก็ไม่รู้เพราะความบังเอิญ หรืออันที่จริงฉันนั้นจงใจ 
    C#m                              A
    เวลาที่เธอมายืนใกล้ๆ ก็ยังเผลอไปสบตา 
                                                     B
    รู้ก็ทั้งรู้ว่าคงไม่มีปัญญา คงไม่มีหวัง
    ///                    A    G#m          F#m          G#m
    /// ไม่อยากจะเหลียวมอง ฉันคอยบอกตัวเอง แต่ยังทำไม่ได้ 
    ///                 A G#m   F#m               A                 B 
    /// ไม่อยากจะสนใจ ก็รู้ว่าไม่มีทาง แต่ก็ไม่รู้ต้องทำอย่างไร 
    ///
    //////               E                                    C#m
    ////// อดใจไม่ไหวเมื่อได้พบหน้า ยิ่งเธอส่งยิ้มคืนมายิ่งหวั่นไหว 
    //////                   A             F#m                              B
    ////// ยังเป็นอย่างนี้อยู่ทุกวัน           ฉันต้องคอยหักห้ามใจ 
    //////
    /////////                E                                   C#m
    ///////// อดใจไม่ไหวทุกทีที่เจอ เพียงแค่แอบเผลอมองตาจะผิดไหม
    /////////               A                F#m                         B                    E
    ///////// เก็บเอาไปฝันอยู่ทุกคืน         ฉันต้องทำตัวเช่นไร ช่วยบอกได้ไหมเธอ
    
    Solo - E/E/C#m/C#m/A/A/B/B/E/E/A/A/E/E/A/A
1

ขอเชิญร่วมแสดงความคิดเห็นครับ

คลิกที่รูป เพื่อแทรกรูปลงในข้อความ
  • Member :
    username
    password
  • Not a member :
    name
    email