Loading

คอร์ดเพลง หวาน

เซลล์ ( Cells )

อัพโหลดคลิปเพลงนี้ที่คุณ ร้อง/เล่น ด้วยตัวคุณเอง ได้แล้ววันนี้
ระหว่างการทดสอบระบบหากพบข้อผิดพลาด กรุณาแจ้งที่นี่
Print
สายตาเธอ แน่มาก หวานจนทำให้สั่นไหว หวานจนห้ามใจไม่ได้
รอยยิ้ม ที่ยิ้มมา หวานจนเกินจะทานไหว หวานจนเกินจะขาดใจ
*จึงเกิดคำถามอยุ่ในหัวใจ เลยอยากจะถามให้หายข้องใจ
**มีแฟนแล้วหรือยัง หากว่ายัง อยากจะขอให้เธอช่วยพิจารณา
คนๆนี้เข้าไปอยู่ในหัวใจ สายตาหวานๆ รอยยิ้มหวานๆ
อยากได้คนหวานๆ แบบเธอมาเป็นหวานใจ
เสียงปากที่เอ่ยมาหวานจนทำทำให้หวั่นไหว หวานสะเทือนไปทั้งกาย
ใบหน้าที่เหลียวมาหวานจนยืนอยุ่ไม่ได้ หวานจนเกือบลืมหายใจ
*,**
*,**
อยากได้คนหวานๆ อย่างนี้มาเดินข้างกาย
อยากได้คนหวานๆ แบบเธอมาเป็นคุ่ใจ
อยากได้คนหวานๆ แบบเธอมาเป็นหวานใจ

เพลงแนะนำอีกเพลง นึงครับ โหลดฟังได้จากลิงค์นี้ครับ
http://www.uploadtoday.com/savefile.php?a1087fa8c69763bdce766fcaeea98f1a
http://www.musicatm.com/thai/คอร์ดเพลง-หวาน-เซลล์-(-Cells-)-8207.html
ดาวน์โหลด Full Song
กด *424243089666584
กด *424243089666584
ดาวน์โหลด Truetone
กด *424218089666584
กด *424218089666584
กด *424218089666584
ดาวน์โหลด Poly
กด *424214089666584
กด *424214089666584
กด *424214089666584
ดาวน์โหลด Mono
กด *424211089666584
กด *424211089666584
กด *424211089666584
* อัตราค่าบริการดาวน์โหลด Fullsong, Truetone, Poly, Mono : 35 บาท/เพลง
ส่งเพลงนี้ให้เพื่อน
วันที่โพสต์ : 25 มี.ค.2550,02:16น. 58.181.181.192
จำนวนผู้ชม : 200921 คน / แสดงความคิดเห็น : 210 ครั้ง
โพสต์โดย


จาก: บิ๊ก
เข้าร่วม: 7 ปีก่อน
เพลง: 2
โพสต์: 3
เพลงแนะนำ
เพลงฮิต
เลือกแสดงเฉพาะ :

  • ...
    Guest
  • 30 มี.ค.2550,20:25น.
    G EM c D 
    
    วนอยู่แค่นี้
    วงนี้นะ
    เคยเจอตัวจิงแล้ว
    ที่พัทยา
  • ...
    Guest
  • 30 มี.ค.2550,20:25น.
    G EM c D 
    วนอยู่แค่นี้
    วงนี้นะ
    เคยเจอตัวจิงแล้ว
    ที่พัทยา
  • แบงค์คุงฮ่ะ
    Guest
  • 4 เม.ย.2550,16:54น.
    Intro : E(2time)
    E/B/C#m/A B
    E/B/C#m/A B
    E/B/C#m/A

    E B C#m A B
    สายตา เธอแนมมา หวานจนทำให้สั่นไหว หวานจนห้ามใจบ่ได้
    E B C#m A B
    ฮอยยิ้ม ที่ยิ้มมา หวานจนเกินจะทานไหว หวานจนเกินจะขาดใจ

    A E A B
    *จึงเกิดคำถามอยุ่ในหัวใจ เลยอยากจะถามให้หายข้องใจ

    E A C#m B
    **มีแฟนแล้วหรือยัง หากว่ายัง อยากจะขอให้เจ้าซอยพิจารณา คนๆนี้เข้าไปอยู่ในหัวใจ
    A C#m A E A B E
    สายตาหวานๆ ฮอยยิ้มหวานๆ อยากได้คนหวานๆ แบบเจ้ามาเป็นหวานใจ

    Solo : E/B/C#m/A B

    E B C#m A B
    เสียงปาก ที่เอ่ยมา หวานจนเฮ็ดให้หวั่นไหว หวานสะเทือนไปทั้งกาย
    E B C#m A B
    ใบหน้า ที่เหลียวมา หวานจนยืนอยุ่บ่ได้ หวานจนเกือบลืมหายใจ

    *,**
    *,**
    A B E
    อยากได้คนหวานๆ อย่างนี้มาเดินข้างกาย
    A B E
    อยากได้คนหวานๆ แบบเจ้ามาเป็นคุ่ใจ
    A B E
    อยากได้คนหวานๆ แบบเจ้ามาเป็นหวานใจ


    อัพคอร์ดให้แล้วนะคับ
    เด๋วจาแกะ tab ให้ทีหลังนะ

    มีเรื่องไรเกี่ยวกะดนตรีจาสอบถามมผมแอดมาน่ะ
    bankkonrhohotmail.com
  • Spidermonky
    Guest
  • 4 เม.ย.2550,20:22น.
    อันบนมันมั่ว  อันนี้ดีกว่าชัวร์กว่าข้างบนอีก แกะคอร์ดแค่นี้ยังมั่วเลยคุณแล้วจะปรึกษาดนตรีอะไรเนี่ย

    ลองดูอันนี้แน่นอนกว่า

    Intro : D/F#M/G/A (3Time)
    D/A/Bm/G-A(1Time)

    D A Bm G A
    สายตา เธอแนมมา หวานจนทำให้สั่นไหว หวานจนห้ามใจบ่ได้
    D A Bm G A
    ฮอยยิ้ม ที่ยิ้มมา หวานจนเกินจะทานไหว หวานจนเกินจะขาดใจ

    G D G A A
    *จึงเกิดคำถามอยุ่ในหัวใจ เลยอยากจะถามให้หายข้องใจ

    D F#m Bm G A
    **มีแฟนแล้วหรือยัง หากว่ายัง อยากจะขอให้เจ้าซอยพิจารณา คนๆนี้เข้าไปอยู่ในหัวใจ
    F#m Bm G A
    สายตาหวานๆ ฮอยยิ้มหวานๆ อยากได้คนหวานๆ แบบเจ้ามาเป็นหวานใจ

    Solo : D/A/Bm/G-A

    D A Bm G A
    เสียงปาก ที่เอ่ยมา หวานจนเฮ็ดให้หวั่นไหว หวานสะเทือนไปทั้งกาย
    D A Bm G A
    ใบหน้า ที่เหลียวมา หวานจนยืนอยุ่บ่ได้ หวานจนเกือบลืมหายใจ

    *,**
    *,**
    G A D
    อยากได้คนหวานๆ อย่างนี้มาเดินข้างกาย
    G A D
    อยากได้คนหวานๆ แบบเจ้ามาเป็นคุ่ใจ
    G A D
    อยากได้คนหวานๆ แบบเจ้ามาเป็นหวานใจ
  • ๐ตะเกียบ๐
    Guest
  • 8 เม.ย.2550,21:57น.
    Cells : หวาน

    Intro : / D / F#m / G / A / ( 3 Time )
    / D / A / Bm / G A / ( 1 Time )

    D A Bm G A
    สายตา เธอแนมมา หวานจนทำให้สั่นไหว หวานจนห้ามใจบ่ได้
    D A Bm G A
    ฮอยยิ้ม ที่ยิ้มมา หวานจนเกินจะทานไหว หวานจนเกินจะขาดใจ

    G D G A A
    * จึงเกิดคำถามอยุ่ในหัวใจ เลยอยากจะถามให้หายข้องใจ

    D F#m Bm G A
    ** มีแฟนแล้วหรือยัง หากว่ายัง อยากจะขอให้เจ้าซอยพิจารณา คนๆนี้เข้าไปอยู่ในหัวใจ
    F#m Bm G A ( D )
    สายตาหวานๆ ฮอยยิ้มหวานๆ อยากได้คนหวานๆ แบบเจ้ามาเป็นหวานใจ

    Solo : / D / A / Bm / G A /

    D A Bm G A
    เสียงปาก ที่เอ่ยมา หวานจนเฮ็ดให้หวั่นไหว หวานสะเทือนไปทั้งกาย
    D A Bm G A
    ใบหน้า ที่เหลียวมา หวานจนยืนอยุ่บ่ได้ หวานจนเกือบลืมหายใจ

    ( * )

    D F#m Bm G A
    มีแฟนแล้วหรือยัง หากว่ายัง อยากจะขอให้เจ้าซอยพิจารณา คนๆนี้เข้าไปอยู่ในหัวใจ
    F#m Bm G A ( D )
    เสียงปาก หวานๆ ใบหน้าหวานๆ อยากได้คนหวานๆ แบบเจ้ามาเป็นหวานใจ

    Intro : / D / A / Bm / G A /

    ( * , ** )

    D F#m G A D
    อยากได้คนหวานๆ แบบนี้มาเดินข้างกาย
    D F#m G A D
    อยากได้คนหวานๆ แบบเจ้ามาเป็นคุ่ใจ
    D F#m G A D
    อยากได้คนหวานๆ แบบเจ้ามาเป็นหวานใจ

    Outro : / D / F#m / Bm / G A / (2 Times) / D /
  • ๐ตะเกียบ๐
    Guest
  • 8 เม.ย.2550,21:59น.
    Cells : หวาน

    Intro : / D / F#m / G / A / ( 3 Time )
    / D / A / Bm / G A / ( 1 Time )

    D A Bm G A
    สายตา เธอแนมมา หวานจนทำให้สั่นไหว หวานจนห้ามใจบ่ได้
    D A Bm G A
    ฮอยยิ้ม ที่ยิ้มมา หวานจนเกินจะทานไหว หวานจนเกินจะขาดใจ

    G D G A A
    * จึงเกิดคำถามอยุ่ในหัวใจ เลยอยากจะถามให้หายข้องใจ

    D F#m Bm G A
    ** มีแฟนแล้วหรือยัง หากว่ายัง อยากจะขอให้เจ้าซอยพิจารณา คนๆนี้เข้าไปอยู่ในหัวใจ
    F#m Bm G A ( D )
    สายตาหวานๆ ฮอยยิ้มหวานๆ อยากได้คนหวานๆ แบบเจ้ามาเป็นหวานใจ

    Solo : / D / A / Bm / G A /

    D A Bm G A
    เสียงปาก ที่เอ่ยมา หวานจนเฮ็ดให้หวั่นไหว หวานสะเทือนไปทั้งกาย
    D A Bm G A
    ใบหน้า ที่เหลียวมา หวานจนยืนอยุ่บ่ได้ หวานจนเกือบลืมหายใจ

    ( * )

    D F#m Bm G A
    มีแฟนแล้วหรือยัง หากว่ายัง อยากจะขอให้เจ้าซอยพิจารณา คนๆนี้เข้าไปอยู่ในหัวใจ
    F#m Bm G A ( D )
    เสียงปาก หวานๆ ใบหน้าหวานๆ อยากได้คนหวานๆ แบบเจ้ามาเป็นหวานใจ

    Intro : / D / A / Bm / G A /

    ( * , ** )

    D F#m G A D
    อยากได้คนหวานๆ แบบนี้มาเดินข้างกาย
    D F#m G A D
    อยากได้คนหวานๆ แบบเจ้ามาเป็นคุ่ใจ
    D F#m G A D
    อยากได้คนหวานๆ แบบเจ้ามาเป็นหวานใจ

    Outro : / D / F#m / Bm / G A / (2 Times) / D /
  • ๐ตะเกียบ๐
    Guest
  • 8 เม.ย.2550,22:09น.
    Cells : หวาน

    Intro : / D / F#m / G / A / ( 3 Time )
    / D / A / Bm / G A / ( 1 Time )

    D A Bm G A
    สายตา เธอแนมมา หวานจนทำให้สั่นไหว หวานจนห้ามใจบ่ได้
    D A Bm G A
    ฮอยยิ้ม ที่ยิ้มมา หวานจนเกินจะทานไหว หวานจนเกินจะขาดใจ

    G D G A A
    * จึงเกิดคำถามอยุ่ในหัวใจ เลยอยากจะถามให้หายข้องใจ

    D F#m Bm G A
    ** มีแฟนแล้วหรือยัง หากว่ายัง อยากจะขอให้เจ้าซอยพิจารณา คนๆนี้เข้าไปอยู่ในหัวใจ
    F#m Bm G A ( D )
    สายตาหวานๆ ฮอยยิ้มหวานๆ อยากได้คนหวานๆ แบบเจ้ามาเป็นหวานใจ

    Intro : / D / A / Bm / G A /

    D A Bm G A
    เสียงปาก ที่เอ่ยมา หวานจนเฮ็ดให้หวั่นไหว หวานสะเทือนไปทั้งกาย
    D A Bm G A
    ใบหน้า ที่เหลียวมา หวานจนยืนอยุ่บ่ได้ หวานจนเกือบลืมหายใจ

    ( * )

    D F#m Bm G A
    มีแฟนแล้วหรือยัง หากว่ายัง อยากจะขอให้เจ้าซอยพิจารณา คนๆนี้เข้าไปอยู่ในหัวใจ
    F#m Bm G A ( D )
    เสียงปาก หวานๆ ใบหน้าหวานๆ อยากได้คนหวานๆ แบบเจ้ามาเป็นหวานใจ

    Solo : / D / A / Bm / G A /

    ( * , ** )

    D F#m G A D
    อยากได้คนหวานๆ แบบนี้มาเดินข้างกาย
    D F#m G A D
    อยากได้คนหวานๆ แบบเจ้ามาเป็นคุ่ใจ
    D F#m G A D
    อยากได้คนหวานๆ แบบเจ้ามาเป็นหวานใจ

    Outro : / D / F#m / Bm / G A / (2 Times) / D /

    แก้นิดหน่อย
  • ๐ตะเกียบ๐
    Guest
  • 8 เม.ย.2550,22:16น.
    Cells : หวาน

    Intro : / D / F#m / G / A / ( 3 Time )
    / D / A / Bm / G A / ( 1 Time )

    D A Bm G A
    สายตา เธอแนมมา หวานจนทำให้สั่นไหว หวานจนห้ามใจบ่ได้
    D A Bm G A
    ฮอยยิ้ม ที่ยิ้มมา หวานจนเกินจะทานไหว หวานจนเกินจะขาดใจ

    G D G A A
    * จึงเกิดคำถามอยุ่ในหัวใจ เลยอยากจะถามให้หายข้องใจ

    D F#m Bm G A
    ** มีแฟนแล้วหรือยัง หากว่ายัง อยากจะขอให้เจ้าซอยพิจารณา คนๆนี้เข้าไปอยู่ในหัวใจ
    F#m Bm G A ( D )
    สายตาหวานๆ ฮอยยิ้มหวานๆ อยากได้คนหวานๆ แบบเจ้ามาเป็นหวานใจ

    Intro : / D / A / Bm / G A /

    D A Bm G A
    เสียงปาก ที่เอ่ยมา หวานจนเฮ็ดให้หวั่นไหว หวานสะเทือนไปทั้งกาย
    D A Bm G A
    ใบหน้า ที่เหลียวมา หวานจนยืนอยุ่บ่ได้ หวานจนเกือบลืมหายใจ

    ( * )

    D F#m Bm G A
    มีแฟนแล้วหรือยัง หากว่ายัง อยากจะขอให้เจ้าซอยพิจารณา คนๆนี้เข้าไปอยู่ในหัวใจ
    F#m Bm G A ( D )
    เสียงปาก หวานๆ ใบหน้าหวานๆ อยากได้คนหวานๆ แบบเจ้ามาเป็นหวานใจ

    Solo : / D / A / Bm / G A /

    ( * , ** )

    D F#m G A D
    อยากได้คนหวานๆ แบบนี้มาเดินข้างกาย
    D F#m G A D
    อยากได้คนหวานๆ แบบเจ้ามาเป็นคุ่ใจ
    D F#m G A D
    อยากได้คนหวานๆ แบบเจ้ามาเป็นหวานใจ

    Outro : / D / F#m / Bm / G A / (2 Times) / D /

    ตรงหมดละนะ ผมจับคอร์ดร็อกเอานะ
    เดวแกะแทปมาให้ จ้า
  • KrItzA
    Guest
  • 12 เม.ย.2550,15:47น.
    Intro : / D / F#m / G / A / ( 3 Time )
    / D / A / Bm / G A / ( 1 Time )

    D A Bm G A
    สายตา เธอมองมา หวานจนทำให้สั่นไหว หวานจนห้ามใจไม่ได้
    D A Bm G A
    รอยยิ้ม ที่ยิ้มมา หวานจนเกินจะทนไหว หวานจนเกินจะขาดใจ

    G D G A A
    * จึงเกิดคำถามอยุ่ในหัวใจ เลยอยากจะถามให้หายข้องใจ

    D F#m Bm G A
    ** มีแฟนแล้วหรือยัง หากว่ายัง อยากจะขอให้เธอลองพิจารณา คนๆนี้เข้าไปอยู่ในหัวใจ
    F#m Bm G A ( D )
    สายตาหวานๆ รอยยิ้มหวานๆ อยากได้คนหวานๆ แบบเธอมาเป็นหวานใจ

    Intro : / D / A / Bm / G A /

    D A Bm G A
    เสียงปาก ที่พุด หวานจนทำให้หวั่นไหว หวานสะเทือนไปทั้งกาย
    D A Bm G A
    ใบหน้า ที่หันมา หวานจนยืนอยุ่ไม่ได้ หวานจนเกือบลืมหายใจ
    ( * )
    D F#m Bm G A
    มีแฟนแล้วหรือยัง หากว่ายัง อยากจะขอให้เธอลองพิจารณา คนๆนี้เข้าไปอยู่ในหัวใจ
    F#m Bm G A ( D )
    เสียงปาก หวานๆ ใบหน้าหวานๆ อยากได้คนหวานๆ แบบเธอมาเป็นหวานใจ

    Solo : / D / A / Bm / G A /

    ( * , ** )

    D F#m G A D
    อยากได้คนหวานๆ แบบนี้มาเดินข้างกาย
    D F#m G A D
    อยากได้คนหวานๆ แบบเธอมาเป็นคุ่ใจ
    D F#m G A D
    อยากได้คนหวานๆ แบบเธอมาเป็นหวานใจ

    Outro : / D / F#m / Bm / G A / (2 Times) / D /

    ไม่มีไรเหอๆเผื่ออยากรองแบบไทยๆ
  • แบงค์คุงฮ่ะ
    Guest
  • 13 เม.ย.2550,21:31น.

    Intro ชัวๆร์จ้า
    ------------------------------------|--------------------------------------------
    15-15-15-17-17-19-19-19 | 15-15-15-17-17-19-19-19 (3รอบ)
    ------------------------------------|-----------------------------------------
    ------------------------------------|-------------------------------------------
    ------------------------------------|-------------------------------------------
    ------------------------------------|---------------------------------------------

    -----------------|---------------|----------------|--------------------
    -----------------|---------------|----------------|--------------------
    -----------------|---------------|----------------|--------------------
    --4-2--4--7---|-4----2--4---|--4---2---4--|---4---2---4---7--
    5---------------|-------------5-|-------------5-|--------------------
    -----------------|----------------|----------------|-------------------

    -----------------|--------------------------------|---------------|-------------------
    -----------------|--------------------------------|---------------|-------------------
    ------------7---|-----6--7h-6-----------------|---------------|-------------------
    --4-2--4-------|--------------9-7--------------|---4-2-4-7-|----4---2----4---
    -----------------|-------------------10-9-7-5--|--------------|-----------------5-
    -----------------|---------------------------------|--------------|--------------------

    ----------------------|---------------------------------------|---------------------------------------
    ----------------------|---------------------------------------|-------------------------------------
    ----------------------|---------------------------------------|--------------------------------------
    ---4---2-------------|-7-7-7---7-7-7--7-7-7--7-7-7--|--------------------------------------
    -----------------------|-5-5-5---5-5-5--5-5-5--5-5-5--|--7-7-7--7-7-7--7-7-7--7-7-7-
    -----------------------|---------------------------------------|--5-5-5--5-5-5--5-5-5--5-5-5-

    --------------------------------------|-------------------------------------------
    --------------------------------------|-----------------------------------------
    --------------------------------------|--------------------------------------
    --------------------------------------|--------------------------------------
    -9-9-9--9-9-9--9-9-9--9-9-9--|--5-5-5--5-5-5---7-7-7--7-7-7--
    -7-7-7--7-7-7--7-7-7--7-7-7--|--3-3-3--3-3-3---5-5-5--5-5-5--

    เวรกำรกว่าจะพิมเส็ด
    แกะดู ไม่รู้จะตรงป่าว แต่ผมว่าเหมือน 100% เลย 55555555555555555+
  • 18 เม.ย.2550,17:34น.
    Cells : หวาน

    Intro : / D / F#m / G / A / ( 3 Time )
    / D / A / Bm / G A / ( 1 Time )

    D A Bm G A
    สายตา เธอแนมมา หวานจนทำให้สั่นไหว หวานจนห้ามใจบ่ได้
    D A Bm G A
    ฮอยยิ้ม ที่ยิ้มมา หวานจนเกินจะทานไหว หวานจนเกินจะขาดใจ

    G D G A A
    * จึงเกิดคำถามอยุ่ในหัวใจ เลยอยากจะถามให้หายข้องใจ

    D F#m Bm G A
    ** มีแฟนแล้วหรือยัง หากว่ายัง อยากจะขอให้เจ้าซอยพิจารณา คนๆนี้เข้าไปอยู่ในหัวใจ
    F#m Bm G A ( D )
    สายตาหวานๆ ฮอยยิ้มหวานๆ อยากได้คนหวานๆ แบบเจ้ามาเป็นหวานใจ

    Intro : / D / A / Bm / G A /

    D A Bm G A
    เสียงปาก ที่เอ่ยมา หวานจนเฮ็ดให้หวั่นไหว หวานสะเทือนไปทั้งกาย
    D A Bm G A
    ใบหน้า ที่เหลียวมา หวานจนยืนอยุ่บ่ได้ หวานจนเกือบลืมหายใจ

    ( * )

    D F#m Bm G A
    มีแฟนแล้วหรือยัง หากว่ายัง อยากจะขอให้เจ้าซอยพิจารณา คนๆนี้เข้าไปอยู่ในหัวใจ
    F#m Bm G A ( D )
    เสียงปาก หวานๆ ใบหน้าหวานๆ อยากได้คนหวานๆ แบบเจ้ามาเป็นหวานใจ

    Solo : / D / A / Bm / G A /

    ( * , ** )

    D F#m G A D
    อยากได้คนหวานๆ แบบนี้มาเดินข้างกาย
    D F#m G A D
    อยากได้คนหวานๆ แบบเจ้ามาเป็นคุ่ใจ
    D F#m G A D
    อยากได้คนหวานๆ แบบเจ้ามาเป็นหวานใจ

    Outro : / D / F#m / Bm / G A / (2 Times) / D /


    แน่นอนงับ
  • นัทแฟนแพรว
    Guest
  • 18 เม.ย.2550,23:33น.
    มั่วหมดเล่น   G/E M/C/Dทั้งเพลง  
  • 21 เม.ย.2550,14:33น.

    5555555555555555+ตลกพวกอดเก่งไม่ให้เครดิตเว่ยยยยย

    เครดิต-คอร์ดแท็บดอทไอเอนดอททีเอช

    Solo ผมเอาจากเว็บคอร์ดแท็บนะ ไม่ใช่แกะเอง ซึ่งผมว่าน่าจะตรงซัก99.99% นะ

    1)----------------------------------------------------14------14-------15------16-----------------------
    2)----15-14----15-14-----17-14----17-14------15------15-------15------16--14-15~-17~--
    3)-14--------14---------14---------14--------14------14------14-------14---------------------------
    4)------------------------------------------------------------------------------------------------------------
    5)------------------------------------------------------------------------------------------------------------
    6)------------------------------------------------------------------------------------------------------------

    1)----------17---------------------------17--------------------------17-------------17---------
    2)-14-15-----14-15-14-15-14-15----14-15-14-15-14-15----14-15-14-------------
    3)-----------------------------------------------------------------------------------------------------
    4)---------------------------------------------------------------------------------------------------
    5)---------------------------------------------------------------------------------------------------
    6)----------------------------------------------------------------------------------------------------

    เพลงนี้สำหรับผมผมว่าเล่นไม่ยากนะครับ
  • Pr_PT 3.7
    Guest
  • 15 พ.ค.2550,17:16น.
    หวาน : Cells

    Intro : / D / F#m / G / A / ( 3 Time )
    / D / A / Bm / G A / ( 1 Time )

    D A Bm G A
    สายตา เธอแนมมา หวานจนทำให้สั่นไหว หวานจนห้ามใจบ่ได้
    D A Bm G A
    ฮอยยิ้ม ที่ยิ้มมา หวานจนเกินจะทานไหว หวานจนเกินจะขาดใจ

    G D G A A
    * จึงเกิดคำถามอยุ่ในหัวใจ เลยอยากจะถามให้หายข้องใจ

    D F#m Bm G A
    ** มีแฟนแล้วหรือยัง หากว่ายัง อยากจะขอให้เจ้าซอยพิจารณา คนๆนี้เข้าไปอยู่ในหัวใจ
    F#m Bm G A ( D )
    สายตาหวานๆ ฮอยยิ้มหวานๆ อยากได้คนหวานๆ แบบเจ้ามาเป็นหวานใจ

    Intro : / D / A / Bm / G A /

    D A Bm G A
    เสียงปาก ที่เอ่ยมา หวานจนเฮ็ดให้หวั่นไหว หวานสะเทือนไปทั้งกาย
    D A Bm G A
    ใบหน้า ที่เหลียวมา หวานจนยืนอยุ่บ่ได้ หวานจนเกือบลืมหายใจ

    ( * )

    D F#m Bm G A
    มีแฟนแล้วหรือยัง หากว่ายัง อยากจะขอให้เจ้าซอยพิจารณา คนๆนี้เข้าไปอยู่ในหัวใจ
    F#m Bm G A ( D )
    เสียงปาก หวานๆ ใบหน้าหวานๆ อยากได้คนหวานๆ แบบเจ้ามาเป็นหวานใจ

    Solo : / D / A / Bm / G A /

    ( * , ** )

    D F#m G A D
    อยากได้คนหวานๆ แบบนี้มาเดินข้างกาย
    D F#m G A D
    อยากได้คนหวานๆ แบบเจ้ามาเป็นคุ่ใจ
    D F#m G A D
    อยากได้คนหวานๆ แบบเจ้ามาเป็นหวานใจ

    Outro : / D / F#m / Bm / G A / (2 Times) / D /

    แน่นอนนนนนนน เลยยยยยยยย ลองละ
  • กอล์ฟ มือกีต้า Sleeping
    Guest
  • 17 พ.ค.2550,21:58น.

    1----------------------------
    2----15-14-----15-14-----17-14------17-14-----19-15------22-17----22-17-15
    3-12---------12---------12----------14----------14----------14---------16--
    4-----------------------------------------------
    5----------------------------------
    6------------------------------------

    เหมือนว่าจะชัว
  • 29 พ.ค.2550,13:11น.
    หวาน : Cells

    Intro : D F#m G / A ( 3 Time )
    D A Bm G / A

    D A Bm G A
    สายตา เธอแน่มาก หวานจนทำให้สั่นไหว หวานจนห้ามใจบ่ได้
    D A Bm G A
    ฮอยยิ้ม ที่ยิ้มมา หวานจนเกินจะทานไหว หวานจนเกินจะขาดใจ

    G D
    * จึงเกิดคำถาม อยู่ในหัวใจ
    G A
    เลยอยากจะถาม... ให้หายข้องใจ...

    D F#m Bm G A
    ** มีแฟนแล้วหรือยัง หากว่ายัง อยากจะขอให้เจ้าซ่อยพิจารณา คนๆนี้เข้าไปอยู่ในหัวใจ
    F#m Bm G A D
    สายตาหวานๆ ฮอยยิ้มหวานๆ อยากได้คนหวานๆ แบบเจ้ามาเป็นหวานใจ...

    Intro : D A Bm G / A

    D A Bm G A
    เสียงปาก ที่เอ่ยมา หวานจนเฮ็ดให้หวั่นไหว หวานสะเทือนไปทั้งกาย
    D A Bm G A
    ใบหน้า ที่เหลียวมา หวานจนยืนอยู่บ่ได้ หวานจนเกือบลืมหายใจ

    (ซ้ำ * )

    D F#m Bm G A
    มีแฟนแล้วหรือยัง หากว่ายัง อยากจะขอให้เจ้าซ่อยพิจารณา คนๆนี้เข้าไปอยู่ในหัวใจ
    F#m Bm G A
    เสียงปากหวานๆ ใบหน้าหวานๆ อยากได้คนหวานๆ แบบเจ้ามาเป็นหวานใจ...

    Solo : D A Bm G / A

    (ซ้ำ * , ** )

    G A D F#m
    อยากได้คนหวานๆ อย่างนี้มาเดินข้างกาย..
    G A D F#m
    อยากได้คนหวานๆ แบบเจ้ามาเป็นคู่ใจ..
    G A D
    อยากได้คนหวานๆ แบบเจ้ามาเป็นหวานใจ..

    Outro : D F#m Bm G / A (2 Times) D

  • unknow
    Guest
  • 29 พ.ค.2550,17:36น.
    หวาน : Cells

    Intro : D F#m G / A ( 3 Time )
    D A Bm G / A

    D A Bm G A
    สายตา เธอแนมมา หวานจนทำให้สั่นไหว หวานจนห้ามใจบ่ได้
    D A Bm G A
    ฮอยยิ้ม ที่ยิ้มมา หวานจนเกินจะทานไหว หวานจนเกินจะขาดใจ

    G D
    * จึงเกิดคำถาม อยู่ในหัวใจ
    G A
    เลยอยากจะถาม... ให้หายข้องใจ...

    D F#m Bm G A
    ** มีแฟนแล้วหรือยัง หากว่ายัง อยากจะขอให้เจ้าซ่อยพิจารณา คนๆนี้เข้าไปอยู่ในหัวใจ
    F#m Bm G A D
    สายตาหวานๆ ฮอยยิ้มหวานๆ อยากได้คนหวานๆ แบบเจ้ามาเป็นหวานใจ...

    Intro : D A Bm G / A

    D A Bm G A
    เสียงปาก ที่เอ่ยมา หวานจนเฮ็ดให้หวั่นไหว หวานสะเทือนไปทั้งกาย
    D A Bm G A
    ใบหน้า ที่เหลียวมา หวานจนยืนอยู่บ่ได้ หวานจนเกือบลืมหายใจ

    (ซ้ำ * )

    D F#m Bm G A
    มีแฟนแล้วหรือยัง หากว่ายัง อยากจะขอให้เจ้าซ่อยพิจารณา คนๆนี้เข้าไปอยู่ในหัวใจ
    F#m Bm G A
    เสียงปากหวานๆ ใบหน้าหวานๆ อยากได้คนหวานๆ แบบเจ้ามาเป็นหวานใจ...

    Solo : D A Bm G / A

    (ซ้ำ * , ** )

    G A D F#m
    อยากได้คนหวานๆ อย่างนี้มาเดินข้างกาย..
    G A D F#m
    อยากได้คนหวานๆ แบบเจ้ามาเป็นคู่ใจ..
    G A D
    อยากได้คนหวานๆ แบบเจ้ามาเป็นหวานใจ..

    Outro : D F#m Bm G / A (2 Times) D

    อันนี้ชัวร์ครับถูกหมดแล้ว อันบนยังผิดอีกนิสสสสหน่อย ไม่ว่ากันนะครับ ทำเต็มที่แล้วอะ
  • ตะเกียบ
    Guest
  • 5 มิ.ย.2550,16:39น.

    ตรงท่อน *จึงเกิดคำถามอยุ่ในหัวใจ เลยอยากจะถามให้หายข้องใจ เล่นยังงี้ จับจังหวะเอานะ

    1----------------------------------------
    2-----------15----14------------------
    3-----14----------------14------------ x2
    4----------------------------------------
    5----------------------------------------
    6----------------------------------------


    1-----------------------------------17--
    2-----------15----14-----15----------
    3-----14--------------------------------
    4---------------------------------------- x3
    5----------------------------------------
    6----------------------------------------
  • Naomi_aoN
    Guest
  • 17 มิ.ย.2550,04:08น.
    Cells : หวาน

    Intro : / D / F#m / G / A / ( 3 Time )
    / D / Bm / G A / ( 1 Time )

    D Bm G A
    สายตา เธอแนมมา หวานจนทำให้สั่นไหว หวานจนห้ามใจบ่ได้
    D Bm G A
    ฮอยยิ้ม ที่ยิ้มมา หวานจนเกินจะทานไหว หวานจนเกินจะขาดใจ

    G D G A A
    * จึงเกิดคำถามอยุ่(ขึ้น)ในหัวใจ เลยอยากจะถามให้หายข้องใจ

    D F#m Bm G A
    ** มีแฟนแล้วหรือยัง หากว่ายัง อยากจะขอให้เจ้าซอยพิจารณา คนๆนี้เข้าไปอยู่ในหัวใจ
    F#m Bm G A ( D )
    สายตาหวานๆ ฮอยยิ้มหวานๆ อยากได้คนหวานๆ แบบเจ้ามาเป็นหวานใจ

    Intro : / D / Bm / G A /

    D Bm G A
    เสียงปาก ที่เอ่ยมา หวานจนเฮ็ดให้หวั่นไหว หวานสะเทือนไปทั้งกาย
    D Bm G A
    ใบหน้า ที่เหลียวมา หวานจนยืนอยุ่บ่ได้ หวานจนเกือบลืมหายใจ

    ( * )

    D F#m Bm G A
    มีแฟนแล้วหรือยัง หากว่ายัง อยากจะขอให้เจ้าซอยพิจารณา คนๆนี้เข้าไปอยู่ในหัวใจ
    F#m Bm G A ( D )
    เสียงปากหวานๆ ใบหน้าหวานๆ อยากได้คนหวานๆ แบบเจ้ามาเป็นหวานใจ

    Solo : / D / Bm / G A /

    ( * , ** )

    D F#m G A D
    อยากได้คนหวานๆ แบบนี้มาเดินข้างกาย
    D F#m G A D
    อยากได้คนหวานๆ แบบเจ้ามาเป็นคุ่ใจ
    D F#m G A D
    อยากได้คนหวานๆ แบบเจ้ามาเป็นหวานใจ

    Outro : / D / F#m / Bm / G A / (2 Times) / D /

    ขอแก้นิดนึงนะนิดเดียวเอง
    ลองดูแค่เอา A ออกเองน่าจะดีก่านะไม่งั้นมานเกินหนะ

  • [LiF Bass >>]
    Guest
  • 23 มิ.ย.2550,19:39น.
    Cells : หวาน

    Intro : / D / F#m / G / A / ( 3 Time )
    / D / Bm / G A / ( 1 Time )

    D Bm G A
    สายตา เธอแนมมา หวานจนทำให้สั่นไหว หวานจนห้ามใจบ่ได้
    D Bm G A
    ฮอยยิ้ม ที่ยิ้มมา หวานจนเกินจะทานไหว หวานจนเกินจะขาดใจ

    G D G A A
    * จึงเกิดคำถามอยุ่(ขึ้น)ในหัวใจ เลยอยากจะถามให้หายข้องใจ

    D F#m Bm G A
    ** มีแฟนแล้วหรือยัง หากว่ายัง อยากจะขอให้เจ้าซอยพิจารณา คนๆนี้เข้าไปอยู่ในหัวใจ
    F#m Bm G A ( D )
    สายตาหวานๆ ฮอยยิ้มหวานๆ อยากได้คนหวานๆ แบบเจ้ามาเป็นหวานใจ

    Intro : / D / Bm / G A /

    D Bm G A
    เสียงปาก ที่เอ่ยมา หวานจนเฮ็ดให้หวั่นไหว หวานสะเทือนไปทั้งกาย
    D Bm G A
    ใบหน้า ที่เหลียวมา หวานจนยืนอยุ่บ่ได้ หวานจนเกือบลืมหายใจ

    ( * )

    D F#m Bm G A
    มีแฟนแล้วหรือยัง หากว่ายัง อยากจะขอให้เจ้าซอยพิจารณา คนๆนี้เข้าไปอยู่ในหัวใจ
    F#m Bm G A ( D )
    เสียงปากหวานๆ ใบหน้าหวานๆ อยากได้คนหวานๆ แบบเจ้ามาเป็นหวานใจ

    Solo : / D / Bm / G A /

    ( * , ** )

    D F#m G A D
    อยากได้คนหวานๆ แบบนี้มาเดินข้างกาย
    D F#m G A D
    อยากได้คนหวานๆ แบบเจ้ามาเป็นคุ่ใจ
    D F#m G A D
    อยากได้คนหวานๆ แบบเจ้ามาเป็นหวานใจ

    Outro : / D / F#m / Bm / G A / (2 Times) / D /

    ขอแก้นิดนึงนะนิดเดียวเอง
    ลองดูแค่เอา A ออกเองน่าจะดีก่านะไม่งั้นมานเกินหนะ

    แท็บเบสท่อน จึงเกิดคำถามเล่นยังงี้น่ะแกะมา

    5----------3-----------3------------------3-----------3--------------
    4---------------------------5--5--5-5-------------------0--0--0--0
    3-----------5-----3-------------------------5-----3------------------
  • 21 ก.ค.2550,19:05น.

    อันนี้อิทโทรคับ
    1)------------------------------------|--------------------------------------------
    2)15-15-15-17-17-19-19-19 | 15-15-15-17-17-19-19-19 (3รอบ)
    3)------------------------------------|-----------------------------------------
    4)------------------------------------|-------------------------------------------
    5)------------------------------------|-------------------------------------------
    6)------------------------------------|---------------------------------------------

    1)-----------------|---------------|----------------|--------------------
    2)-----------------|---------------|----------------|--------------------
    3)-----------------|---------------|----------------|--------------------
    4)--4-2--4--7---|-4----2--4---|--4---2---4--|---4---2---4---7--
    5)5---------------|-------------5-|-------------5-|--------------------
    6)-----------------|----------------|----------------|-------------------

    1)-----------------|--------------------------------|---------------|-------------------
    2)-----------------|--------------------------------|---------------|-------------------
    3)------------7---|-----6--7h-6-----------------|---------------|-------------------
    4)--4-2--4-------|--------------9-7--------------|---4-2-4-7-|----4---2----4---
    5)-----------------|-------------------10-9-7-5--|--------------|-----------------5-
    6)-----------------|---------------------------------|--------------|--------------------

    1)----------------------|---------------------------------------|---------------------------------------
    2)----------------------|---------------------------------------|-------------------------------------
    3)----------------------|---------------------------------------|--------------------------------------
    4)---4---2-------------|-7-7-7---7-7-7--7-7-7--7-7-7--|--------------------------------------
    5)-----------------------|-5-5-5---5-5-5--5-5-5--5-5-5--|--7-7-7--7-7-7--7-7-7--7-7-7-
    6)-----------------------|---------------------------------------|--5-5-5--5-5-5--5-5-5--5-5-5-

    1)--------------------------------------|-------------------------------------------
    2)--------------------------------------|-----------------------------------------
    3)--------------------------------------|--------------------------------------
    4)--------------------------------------|--------------------------------------
    5)-9-9-9--9-9-9--9-9-9--9-9-9--|--5-5-5--5-5-5---7-7-7--7-7-7--
    6)-7-7-7--7-7-7--7-7-7--7-7-7--|--3-3-3--3-3-3---5-5-5--5-5-5--

    อันนี้โซโล่คับ
    1)----------------------------------------------------14------14-------15------16-----------------------
    2)----15-14----15-14-----17-14----17-14------15------15-------15------16--14-15~-17~--
    3)-14--------14---------14---------14--------14------14------14-------14---------------------------
    4)------------------------------------------------------------------------------------------------------------
    5)------------------------------------------------------------------------------------------------------------
    6)------------------------------------------------------------------------------------------------------------

    1)----------17---------------------------17--------------------------17-------------17---------
    2)-14-15-----14-15-14-15-14-15----14-15-14-15-14-15----14-15-14-------------
    3)-----------------------------------------------------------------------------------------------------
    4)---------------------------------------------------------------------------------------------------
    5)---------------------------------------------------------------------------------------------------
    6)----------------------------------------------------------------------------------------------------
    ผมว่าน่าจะตรงนะคับ โชคดี
  • อาท Release
    Guest
  • 25 ก.ค.2550,12:06น.

    SoLo

    2.) --/12--11--/12--11--/14--13--/14--13

    2.) ต่อ......--/16--15--/16--15--/18--17-18--17--15--17--15
    3.) ---------------------------------------------------------------------------16(ขยี้สาย)

    ไม่ชัวมือใหม่ครับลองดู >_<"
  • วงซิม
    Guest
  • 4 ก.ย.2550,14:17น.

    TAB คราบ...........!
    ท่อนแรก
    แบบง่ายๆ
    เพลงหวาน จากติ๊ดวงซิม
    5 -----------------5---9---7------9------11
    5 -----------------5---9---7------9------11
    5 ------------------5---9---7------9------11
    จบคราบ
    ถูกชัว
  • 123
    Guest
  • 20 ก.ย.2550,09:48น.


    เอาไปเต็มๆ 100%

    เพลง หวาน - Cells

    2: -----15-15-15-17-17-19-19-19----- เล่นกี่รอบไม่รู้ นับเอาเองนะ

    เป็นเสียง Intro ของคีย์บอร์ดอะครับ

    Intro Guitar

    3: -----------------------------------------------------------7--6-7-6---------------------
    4:-------4-2-4--7--4-2-4--4-2-4--4-2-4--7--4-2-4-------------9-7----------------
    5:-----5---------------------5-------5--------------------------------------10-9-7-5-----

    3:---------------------------------
    4:--4-2-4--7-4-2-4---4-2-----
    5:----------------------5----------

    Intro : D/F#m/G/A ( 3 รอบ )
    D/A/Bm/G/A

    D A Bm G A
    สายตา เธอแนมมา หวานจนทำให้สั่นไหว หวานจนห้ามใจบ่ได้
    D A Bm G A
    ฮอยยิ้ม ที่ยิ้มมา หวานจนเกินจะทานไหว หวานจนเกินจะขาดใจ

    1:--------------------------
    2:---------15-14--------- เล่น 2 รอบ แล้วตามด้วย
    3:-----14---------14 -----

    1:--------------------------17-----
    2:---------15-14-15-14-------- เล่น 3 รอบ
    3:-----14-------------------------

    G D
    * จึงเกิดคำถาม อยู่ในหัวใจ
    G A
    เลยอยากจะถาม... ให้หายข้องใจ...

    D F#m Bm G A
    ** มีแฟนแล้วหรือยัง หากว่ายัง อยากจะขอให้เจ้าซ่อยพิจารณา คนๆนี้เข้าไปอยู่ในหัวใจ
    F#m Bm G A D
    สายตาหวานๆ ฮอยยิ้มหวานๆ อยากได้คนหวานๆ แบบเจ้ามาเป็นหวานใจ...

    Intro : D/A/Bm/G/A

    2: -----15-15-15-17-17-19-19-19----- เล่นกี่รอบไม่รู้

    D A Bm G A
    เสียงปาก ที่เอ่ยมา หวานจนเฮ้ดให้หวั่นไหว หวานสะเทือนไปทั้งกาย
    D A Bm G A
    ใบหน้า ที่เหลียวมา หวานจนยืนอยู่บ่ได้ หวานจนเกือบลืมหายใจ

    (ซ้ำ * )

    D F#m Bm G A
    มีแฟนแล้วหรือยัง หากว่ายัง อยากจะขอให้เจ้าซ่อยพิจารณา คนๆนี้เข้าไปอยู่ในหัวใจ
    F#m Bm G A
    เสียงปากหวานๆ ใบหน้าหวานๆ อยากได้คนหวานๆ แบบเจ้ามาเป็นหวานใจ...

    Solo : D/A/Bm/G/A

    1:---------------------------------------------------------14--------14--------15--------17------------
    2:---------15-14----15-14----17-14----17-14--------15--------15--------15-------17-14-15
    3:-----14---------14--------14---------14--------14--------14--------14--------14----------------

    1:-------------------------------17----------------------17----------------------17-------------17-----
    2:-----17-17-17-----15-14----14-15-14-15-14----14-15-14-15-14----14-15-14---------
    3:-----------------------------------------------------------------------------------------------------------

    (ซ้ำ * , ** )

    Outro Guitar

    3: -----------------------------------------------------------7--6-7-6---------------------
    4:-------4-2-4--7--4-2-4--4-2-4--4-2-4--7--4-2-4-------------9-7----------------
    5:-----5---------------------5-------5--------------------------------------10-9-7-5-----

    3:---------------------------------
    4:--4-2-4--7-4-2-4---4-2-----
    5:----------------------5----------

    D F#m G A D F#m
    อยากได้คนหวานๆ อย่างนี้มาเดินข้างกาย..
    G A D F#m
    อยากได้คนหวานๆ แบบเจ้ามาเป็นคู่ใจ..
    G A D
    อยากได้คนหวานๆ แบบเจ้ามาเป็นหวานใจ..

    Outro : D/F#m/Bm/G/A ( 2 รอบ )
    D

    ผิดผลาดตรงไหนบอก จะมาแก้ให้นะครับ
  • 22 ก.ย.2557,01:35น.
    Intro : D F#m G/A (3 times) D A Bm G/A
    
    D       A           Bm
    สายตาเธอแน่มาก หวานจนทำให้สั่นไหว 
    G              A         D        A
    หวานจนห้ามใจบ่ได้  ฮอยยิ้ม ที่ยิ้มมา 
      Bm                         G              A
    หวานจนเกินจะทานไหว หวานจนเกินจะขาดใจ 
                          G                D
                    * จึงเกิดคำถาม อยู่ในหัวใจ 
                            G                    A
                       เลยอยากจะถาม.. ให้หายข้องใจ..
                                        D
                   ** มีแฟนแล้วหรือยัง หากว่ายัง 
                                 F#m                 Bm
                        อยากจะขอให้เจ้าซ่อยพิจารณา 
                       G       A
    คน ๆ นี้ เข้าไปอยู่ในหัวใจ 
        F#m              Bm
    สายตาหวาน ๆ ฮอยยิ้มหวาน ๆ 
              G                   A                D
    อยากให้คนหวาน ๆ แบบเจ้ามาเป็นหวานใจ
    
    (ดนตรี) D A Bm G/A 
                           D         A           Bm
                          เสียงปากที่เอ่ยมา หวานจนเฮ็ดให้หวั่นไหว 
                            G                 A         D     A
                           หวานสะเทือนไปทั้งกาย ใบหน้าที่เหลียวมา
                            Bm                   G                   A
                           หวานจนยืนอยู่บ่ได้ หวานจนเกือบลืมหายใจ 
    
                           (ซ้ำ *)
                    D
    มีแฟนแล้วหรือยัง หากว่ายัง 
             F#m                Bm
    อยากจะขอให้เจ้าซ่อยพิจารณา 
                        G       A
    คน ๆ นี้ให้เข้าไปอยู่ในหัวใจ 
         F#m             Bm
    เสียงปากหวาน ๆ ใบหน้าหวาน ๆ 
              G                   A
    อยากได้คนหวาน ๆ แบบเจ้ามาเป็นหวานใจ ..
    
    (ดนตรี) D A Bm G/A
    
    (ซ้ำ * / **)
                                    G                 A          D     F#m
                           อยากได้คนหวาน ๆ แบบนี้มาเดินข้างกาย... 
                                     G                 A         D     F#m
                           อยากได้คนหวาน ๆ แบบเจ้ามาเป็นคู่ใจ... 
                                     G                  A                  D
                           อยากได้คนหวาน ๆ แบบเจ้ามาเป็นหวานใจ..
    
                           (ดนตรี) D F#m Bm G/A (2 times) D
1

ขอเชิญร่วมแสดงความคิดเห็นครับ

คลิกที่รูป เพื่อแทรกรูปลงในข้อความ
  • Member :
    username
    password
  • Not a member :
    name
    email