Loading

คอร์ดเพลง ห้ามใจ

บอดี้สแลม (Bodyslam)

อัพโหลดคลิปเพลงนี้ที่คุณ ร้อง/เล่น ด้วยตัวคุณเอง ได้แล้ววันนี้
ระหว่างการทดสอบระบบหากพบข้อผิดพลาด กรุณาแจ้งที่นี่
Print
สุดท้าย   ต่อให้เหนี่ยวรั้งสักเท่าไหร่   แค่โลกก็ต้องหมุน   สุดท้าย  วันที่คนรักมาแปรเปลี่ยน   จะห้ามอย่างไร
*ในเมื่อทางทุกทางที่มี ในเมื่อคำทุกคำที่ดี มันหมดความหมาย ในเมื่อใจของเธอไม่มี ในเมื่อมันไม่มีวิธี จะทำเท่าไหร่ ในวันนี้มันคงสายไป*
** ไม่มีสิทธิที่จะไปห้ามให้เธอไม่ไป ในเมื่อเธอไม่เหลือใจ ห้ามยังไง ได้แต่บอกและสั่งตัวเองให้ค่อยห้ามใจ ไม่ให้ร่ำร้อง**
จากนี้โลกก็คงหมุนไปทางเก่า แต่ไม่มีเราแล้ว สุดท้าย คนเราคงพบเพื่อลาจาก แค่นี้ใช่ไหม * /**
รัก รัก รัก ก็เท่านั้น รุ้ รุ้ สุดทางสุดท้ายไม่เหลื่อใคร รัก รัก รัก จบตรงนี้ รุ้ รุ้ แต่จะให้ฉันทำอย่างไร **
เจ็บเท่าไร ก็ต้องเก็บไว้ วันที่เธอนั้นล่ำลา วันที่เธอทึ้งฉันไป ได้แต่บอกและสั่งตัวเองให้ค่อยห้ามใจ เมื่อไม่เหลือใคร จะไม่เสียใจ จะไม่ร่ำร้อง
http://www.musicatm.com/thai/คอร์ดเพลง-ห้ามใจ-บอดี้สแลม-(Bodyslam)-4179.html
ดาวน์โหลด Full Song
กด *424243021306584
กด *424243021306584
ดาวน์โหลด Truetone
กด *424218021306584
กด *424218021306584
กด *424218021306584
ดาวน์โหลด Poly
กด *424214021306584
กด *424214021306584
กด *424214021306584
ดาวน์โหลด Mono
กด *424211021306584
กด *424211021306584
กด *424211021306584
* อัตราค่าบริการดาวน์โหลด Fullsong, Truetone, Poly, Mono : 35 บาท/เพลง
ส่งเพลงนี้ให้เพื่อน
วันที่โพสต์ : 23 เม.ย.2548,16:59น.
จำนวนผู้ชม : 373597 คน / แสดงความคิดเห็น : 137 ครั้ง
โพสต์โดย


จาก: อู๋ zanzone
Guest
เพลงแนะนำ
เพลงฮิต
เลือกแสดงเฉพาะ :

  • เคนคุง
    Guest
  • 25 เม.ย.2548,23:28น.
    ห้ามใจ
    
    บอดี้สแลม (BodySlam)
    intro:Em/C/G/D(2times)
    Em /C G D
    สุดท้าย ต่อให้เหนี่ยวรั้งสักเท่าไหร่ แต่โลกก็ต้องหมุน
    Em /C G D
    สุดท้าย วันที่คนรักมาแปรเปลี่ยน จะห้ามอย่างไร
    Em D C G
    *ในเมื่อทางทุกทางที่มี ในเมื่อคำทุกคำที่ดี มันหมดความหมาย
    Em D C D
    ในเมื่อใจของเธอไม่มี ในเมื่อมันไม่มีวิธี จะทำเท่าไหร่ ในวันนี้มันคงสายไป
    G D Em C G
    **ไม่มีสิทธ์ที่จะไปห้ามให้เธอไม่ไปในเมื่อเธอไม่เหลือใจ ห้ามยังไง

    D Em C G (Em/C/G/D)
    ได้แต่บอกและสั่งตัวเองให้ค่อยห้ามใจ ไม่ให้ร่ำร้อง..

    Em /C G D
    จากนี้ โลกก็คงหมุนไปทางเก่าแต่ไม่มีเราแล้ว
    Em /C G D
    สุดท้าย คนเราคงพบเพื่อลาจาก แค่นี้ใช่ไหม
    (ซำ* / ** )

    Em/ C/ G / D Em/C
    รู้รู้ ..... สุดทางสุดท้ายไม่เหลือใคร
    G D G
    รัก รัก รัก จบตรงนี้ รู้รู้ แต่จะให้ฉัน ทำอย่างไร

    [ *, ** ]
    G D Em /C
    วันที่เธอร่ำลา วันที่เธอทึ้งฉันไป
    G D Em C G/D
    ได้แต่บอกและสั่งตัวเองให้ค่อยห้ามใจ เมื่อไม่เหลือใคร
    Em /C G /D Em /C G
    จะไม่เสียใจ จะไม่รำร้อง เมื่อไม่เหลือใครเฮ้อเฮอ

    ป.ล.ไม่ถูกไม่ต้องด่านะบอกไว้ก่อน อุตส่าแกะมา ไม่ถูกก้อแก้กานไปหวังว่าคงเข้าใจ
  • เคนคุง
    Guest
  • 25 เม.ย.2548,23:28น.
    ห้ามใจ
    บอดี้สแลม (BodySlam)
    intro:Em/C/G/D(2times)
    Em /C G D
    สุดท้าย ต่อให้เหนี่ยวรั้งสักเท่าไหร่ แต่โลกก็ต้องหมุน
    Em /C G D
    สุดท้าย วันที่คนรักมาแปรเปลี่ยน จะห้ามอย่างไร
    Em D C G
    *ในเมื่อทางทุกทางที่มี ในเมื่อคำทุกคำที่ดี มันหมดความหมาย
    Em D C D
    ในเมื่อใจของเธอไม่มี ในเมื่อมันไม่มีวิธี จะทำเท่าไหร่ ในวันนี้มันคงสายไป
    G D Em C G
    **ไม่มีสิทธ์ที่จะไปห้ามให้เธอไม่ไปในเมื่อเธอไม่เหลือใจ ห้ามยังไง

    D Em C G (Em/C/G/D)
    ได้แต่บอกและสั่งตัวเองให้ค่อยห้ามใจ ไม่ให้ร่ำร้อง..

    Em /C G D
    จากนี้ โลกก็คงหมุนไปทางเก่าแต่ไม่มีเราแล้ว
    Em /C G D
    สุดท้าย คนเราคงพบเพื่อลาจาก แค่นี้ใช่ไหม
    (ซำ* / ** )

    Em/ C/ G / D Em/C
    รู้รู้ ..... สุดทางสุดท้ายไม่เหลือใคร
    G D G
    รัก รัก รัก จบตรงนี้ รู้รู้ แต่จะให้ฉัน ทำอย่างไร

    [ *, ** ]
    G D Em /C
    วันที่เธอร่ำลา วันที่เธอทึ้งฉันไป
    G D Em C G/D
    ได้แต่บอกและสั่งตัวเองให้ค่อยห้ามใจ เมื่อไม่เหลือใคร
    Em /C G /D Em /C G
    จะไม่เสียใจ จะไม่รำร้อง เมื่อไม่เหลือใครเฮ้อเฮอ

    ป.ล.ไม่ถูกไม่ต้องด่านะบอกไว้ก่อน อุตส่าแกะมา ไม่ถูกก้อแก้กานไปหวังว่าคงเข้าใจ
  • อู๋ZanZone
    Guest
  • 26 เม.ย.2548,12:49น.
    ขอแก้คอร์ดตรงท่อนเริ่มก่อนนะ    ตรงท่อนเริ่มอันที่ 2 ด้วยคอร์ดเหมือนกาน

    Em/Em7 Am

    สุดท้าย ต่อให้เหนี่ยวรั้งสักเท่าไร แต่โลกก็ต้องหมุน

    Em/Em7 Am

    สุดท้าย วันที่คนรักมาแปรเปลี่ยน จะห้ามอย่างไร


    ที่เหลือก้น่าจะใช่ละ เพี้ยนตรงไหนก็ช่วยเติมๆละกาน แล้วเวลาผิดอย่าไปว่าเค้า
  • อู๋ZanZone
    Guest
  • 26 เม.ย.2548,12:52น.
    กำลืม

    Em/Em7 Am D

    สุดท้าย ต่อให้เหนี่ยวรั้งสักเท่าไร แต่โลกก็ต้องหมุน

    Em/Em7 Am D

    สุดท้าย วันที่คนรักมาแปรเปลี่ยน จะห้ามอย่างไร

    ลืมไปนิส
  • มะกรูด
    Guest
  • 8 พ.ค.2548,02:11น.
         ห้ามใจ : B o d y s l a m

    INTRO : 2 Times

    e--------------------------------------------------------------------
    ---------------------------------------------------------------------
    ---------------------------------------------------------------------
    ----------------------------------------------7-7-7--7/9--9-----
    ----7--7--10--9---7--10-10-10---10-------------------------
    E-------------------------------------------------------------------

    e------------------------------------------------------------------------------------------
    -------------------------------------------------------------------------------------------
    -------------------------------------------------------------------------------------------
    --------12--10--9-------10--9^10^9-------10^12---9^10^9----9---10------
    ---10----------------10-------------------10-----------------------------9---10------
    E------------------------------------------------------------------------------------------

  • วง Zerust
    Guest
  • 15 พ.ค.2548,09:02น.
    1)--------------------------------------------------------------------------------------------
    2)--------------------------------------------------------------------------------------------
    3)--------------------------------------------------------------------------------------------
    4)----------------------------------------------7-7-7--7/9--9----------------------------
    5)----7--7--10--9---7--10-10-10---10-----------------------------------------------
    6)--------------------------------------------------------------------------------------------

    1)--------------------------------------------------------------------------------------------
    2)-------------------------------------------------------------------------------------------- 3)--------------------------------------------------------------------------------------------
    4)--------12--10--9-------10--9^10^9-------10^12---9^10^9----9---10-------
    5)---10----------------10-------------------10-----------------------------9---10-------
    6)--------------------------------------------------------------------------------------------
    เล่น2นะรอบ
    น่าจะใช้นะผิดพลาดประการใดขออภัยด้วย ป.ล.เพื่อนยืม cd ไปอดแกะต่อเลย
    ได้คืนเมื่ไหร่ จะส่งมาอีก

  • DaZe[Lel2M]
    Guest
  • 11 มิ.ย.2548,14:16น.
    Intro 
    4-l--------------------------------------7777--7/9
    5-l--7--7--10--97--7--10--7--7-----------------------


    3-l-------7--5--4-------5/4h5-------5h7/4h5------5h7/4--------
    4-l--10-------------10-----------10------------10----------------
    เล่นวนสองรอบ
    h = hamer on
    / = สไล
    /////////เพิ่มเติม\\\\\\\\\\\\
    ตอนขึ้นในวันนี้ที่รัวๆ 2-l1312--ดีดซ้ำ9รอบ แล้วขึ้นไม่มีสิทที่จาไปห้าม

    ไม่มีสิทที่จาไปห้ามให้เทอไม่ไป
    2-l--12--------------12---------------13----------
    3-l-------12--------------12-----------------------
    4-l------------12---------------12-----------------


    h = hamer on
    / = สไล

    วันที่เทอนั้นรั่มลา

    1-l--------------10--7--5 --5~---------------------------------
    2-l--3--5--8----------------------------------------------------

    วันที่เทอทิ้งฉันไป
    1-l--------------10--7--3--3~----------------------------
    2-l--3--5--8----------------------------------------------------


    ~ดันสาย
  • 30 ก.ค.2548,13:03น.
    ท่อนอินโทร
    จับเพาเวอร์คอร์ด E (จับเหมือน Em คอร์ดนอก แต่ดีดแค่สาย 4 5 6)

    สาย 4-----2-2--------
    สาย 5-----2-2---10-9-7-10-------------12------------14
    สาย 6-----0-0----0----------------0-0-----------0-0------

    พยายามให้เสียง E ของสาย 6 ดังอยู่ตลอดเพื่อคลุมคอร์ดไว้

    แล้วต่อด้วยการจับคอร์ด C ทาบ (นิ้วชี้ทาบเฟรต 3) แล้วดีดแบบนี้

    สาย 2-----------------------------3---------
    สาย 3-----------5-4-5---------5----4-5---
    สาย 4-------5--------------5----------
    สาย 5---3-------------------------

    คอร์ด C นี่ก็เหมือนกันคือพยายามดีดโน้ต C หรือสาย 5 เฟรตที่ 3 ให้ดังอยู่ตลอดเวลาเพื่อคลุมคอร์ด

    ที่โพสต์ให้ดูนี่เป็นเพียงแค่โน้ตหลักๆให้คนอ่านเข้าใจวิธีการเล่นของผมว่าผมเล่นที่เฟรตไหนและวางมือยังไง แต่การจะเล่นให้เหมือนต้นฉบับนั้น ยังต้องเพิ่มการสไลด์และจังหวะการสับคอร์ดอีกมาก ขอให้นำไปจินตนาการต่อกันเองครับว่าเล่นยังไงถึงจะเหมือน
  • BaLL~RooT SounD~
    Guest
  • 28 มี.ค.2549,13:57น.
    ห้ามใจ
    บอดี้สแลม (BodySlam)
    intro: Em/Em/Em/Em/C/C/C/C(2times)
    Em Am Bm
    สุดท้าย ต่อให้เหนี่ยวรั้งสักเท่าไหร่ แต่โลกก็ต้องหมุน
    Em Am Bm
    สุดท้าย วันที่คนรักมาแปรเปลี่ยน จะห้ามอย่างไร
    Em C
    * ในเมื่อทางทุกทางที่มี ในเมื่อคำทุกคำที่ดี มันหมดความหมาย
    Em C D
    ในเมื่อใจของเธอไม่มี ในเมื่อมันไม่มีวิธี จะทำเช่นไหร่ ในวันนี้มันคงสายไป
    G D Em C
    ** ไม่มีสิทธ์ที่จะไปห้ามให้เธอไม่ไป ในเมื่อเธอไม่เหลือใจ ห้ามยังไง
    G D Em C D
    ได้แต่บอกและสั่งตัวเองให้ค่อยห้ามใจ ไม่ให้ร่ำ ร้อง..

    Em Am Bm
    จากนี้ โลกก็คงหมุนไปทางเก่าแต่ไม่มีเราแล้ว
    Em Am Bm
    สุดท้าย คนเราคงพบเพื่อลาจาก แค่นี้ใช่ไหม
    (ซำ* / ** )
    Solo:Em/Em/Em/Em/C/C/C/C
    Em/Em/Em/Em C C
    โว โว โว ก่อนเธอไป โว โว สุดทางสุดท้ายไม่เหลือใคร
    Em/Em/Em/Em C C D
    โว โว โว จบตรงนี้ โว โว แต่จะให้ฉัน ทำอย่างไร
    G D Em C
    ไม่มีสิทธ์ที่จะไปห้ามให้เธอไม่ไป ในเมื่อเธอไม่เหลือใจ ห้ามยังไง
    G D Em C D
    ได้แต่บอกและสั่งตัวเองให้ค่อยห้ามใจ เจ็บเท่าไหร่ ก็ต้องเก็บไว้
    G D Em C
    วันที่เธอร่ำลา วันที่เธอทึ้งฉันไป ฮู..
    G Gmaj7 Em C
    ได้แต่บอกและสั่งตัวเองให้ค่อยห้ามใจ เมื่อไม่เหลือใคร
    Em C Em C Em
    จะไม่เสียใจ จะไม่รำร้อง เมื่อไม่เหลือใคร เฮ้อเฮอ
  • BaLL~RooT SounD/~
    Guest
  • 28 มี.ค.2549,13:58น.
    ห้ามใจ
    บอดี้สแลม (BodySlam)
    intro: Em/Em/Em/Em/C/C/C/C(2times)
    Em Am Bm
    สุดท้าย ต่อให้เหนี่ยวรั้งสักเท่าไหร่ แต่โลกก็ต้องหมุน
    Em Am Bm
    สุดท้าย วันที่คนรักมาแปรเปลี่ยน จะห้ามอย่างไร
    Em C
    * ในเมื่อทางทุกทางที่มี ในเมื่อคำทุกคำที่ดี มันหมดความหมาย
    Em C D
    ในเมื่อใจของเธอไม่มี ในเมื่อมันไม่มีวิธี จะทำเช่นไหร่ ในวันนี้มันคงสายไป
    G D Em C
    ** ไม่มีสิทธ์ที่จะไปห้ามให้เธอไม่ไป ในเมื่อเธอไม่เหลือใจ ห้ามยังไง
    G D Em C D
    ได้แต่บอกและสั่งตัวเองให้ค่อยห้ามใจ ไม่ให้ร่ำ ร้อง..

    Em Am Bm
    จากนี้ โลกก็คงหมุนไปทางเก่าแต่ไม่มีเราแล้ว
    Em Am Bm
    สุดท้าย คนเราคงพบเพื่อลาจาก แค่นี้ใช่ไหม
    (ซำ* / ** )
    Solo:Em/Em/Em/Em/C/C/C/C
    Em/Em/Em/Em C C
    โว โว โว ก่อนเธอไป โว โว สุดทางสุดท้ายไม่เหลือใคร
    Em/Em/Em/Em C C D
    โว โว โว จบตรงนี้ โว โว แต่จะให้ฉัน ทำอย่างไร
    G D Em C
    ไม่มีสิทธ์ที่จะไปห้ามให้เธอไม่ไป ในเมื่อเธอไม่เหลือใจ ห้ามยังไง
    G D Em C D
    ได้แต่บอกและสั่งตัวเองให้ค่อยห้ามใจ เจ็บเท่าไหร่ ก็ต้องเก็บไว้
    G D Em C
    วันที่เธอร่ำลา วันที่เธอทึ้งฉันไป ฮู..
    G Gmaj7 Em C
    ได้แต่บอกและสั่งตัวเองให้ค่อยห้ามใจ เมื่อไม่เหลือใคร
    Em C Em C Em
    จะไม่เสียใจ จะไม่รำร้อง เมื่อไม่เหลือใคร เฮ้อเฮอ
  • not_Random
    Guest
  • 28 ต.ค.2549,16:38น.
    1---------------------------------------------------------------------------------------------
    2---------------------------------------------------------------------------------------------
    3------------------11-slur-12------11----------------------11--slur--12----12------
    4------2---2---------------------------------2-----2----------------------------------------
    5------2---2------9--slur-10-------9-----2-----2----------9---slur--10-----10------
    6------0---0---------------------------------0-----0----------------------------------------

    1---------------------------------------------------------------------------------------------
    2---------------------------------------------------------------------------------------------
    3-----------------12-slur--14---14--14------12---14--slur--16--16---------------
    4---2----2-----------------------------------------------------------------16--------------
    5---2----2------10--slur--12---12--12------10---12--slur--14--14---------------
    6---0----0-----------------------------------------------------------------------------------


    1---------------------------------------------------------------------------------------------------------
    2---------------------------------------------------------------------------------------------------------
    3----------7--------5---4---------------------7-------4----5-----------5-s-7-4-5----------7--7---
    4---5----------------------------5-5-------------------------------5-5-----------------5-5---5--5---
    5-------------------------------------------------------------------------------------------------3--3---
    6---------------------------------------------------------------------------------------------------------

    s คือ การสไลด์สายธรรมดาครับไม่มีไรมาก อิอิ
    slur คือ การดีดสายไปหนึ่งเสียงแล้วสไลด์ไปอีกหนึ่งเสียงแล้วสไลด์กลับมาที่เสียงเดิม
    ที่เราดีดตอนแรกครับโดยการดีดครั้งเดียว ( คร้ายๆกับ hammer on ครับ )
    Tab ที่เอามาให้นี้ผมรับรองว่าถูกต้อง 100% ครับ เพราะผมไปขอจากพี่ทีมงานเลยตอนที่พี่ตูนออกคอนเสริต 55555+ มีอะไรแอดมาคุยได้น่า
    ืnatthiphong_notzahotmail.com
  • tanza_emo
    Guest
  • 8 ธ.ค.2549,20:59น.
       intro โว่ย !!!!!!!!!!  ของจริงไม่มีเพี้ยน

    เอานิ้วชี้ทาบด้วย ทาบให้บอดแล้ว นิ้วก้อย กดตามที่บอก

    3 I--12-11--------------------12-----------------14-----------------------16

    3I-------7---5--4-----------7---4--5--------------5---7----4---5
    4I----5--------------5-5-------------------5-5--------------------------5-5

    2 รอบโว่ย !!!!!!!!!!!!!!!!

  • เบนซ์โว๊ย
    Guest
  • 14 ก.พ.2550,10:21น.

    สาดม่ายลงให้กูว่ะ
    Em7
  • บีม Full-No
    Guest
  • 2 พ.ค.2550,13:13น.

    เห็นมีแต่มั่วกันแล้วรำคาญลูกตาว่ะ (ดูนี่เอ้า เอามาแบ่ง ทำบุญ)

    Guitar
    ท่อนแรก
    1/--x-------------------------------------------------------------------------
    2/--x-------------------------------------------------------------------------
    3/--x--------------------------------------------------------------------------
    4/--------------4s5-----------4s5---------4s7---------4s9-----------
    5/----------------------------------------------------------------------------
    6/------0--0-------------0-0----------0-0---------0-0--------------------

    ท่อน2
    1/-x---------------------------------------------------------------------------------------
    2/-x---------------------------------------------------------------------------------------
    3/------5---7---5p4--------5--7--4h5------5--7p5--4h5------5--7-7-7-7-----
    4/------5---7---5p4--------5--7--4h5------5--7p5--4h5------5--7-7-7-7-----
    5/-x---------------------------------------------------------------------------------------
    6/-x---------------------------------------------------------------------------------------

    Bass
    ท่อนแรก
    1/-----------------------------------------------------------------------------------------
    2/-----------------------------------------------------------------------------------------
    3/------------7s10----------7s10----------7s12---------7s14--------------------
    4/-----0-0-------------0-0-------------0-0-----------0-0-----------------------------

    ท่อนสอง
    1/------------------------------------------------------------------------------------------
    2/------------------------------------------------------------------------------------------
    3/----------3-3-3-3-3-3-(เล่นไป1ห้อง)-------3-5-5-5-5----------------------------
    4/------------------------------------------------------------------------------------------

    มีเรื่องเพลงไหนอยากปรึกษาแอดมาคุยกันได้นะ ยินดี
  • 12 พ.ค.2550,19:12น.

    ผมแกะมาเอง เทพป่ะหล่ะ
    (ไม่เหมือนอย่าว่ากัน)
    intro
    3l---------11s12---11--9--9--12---------12s14---14----------14s16---16
    4l----------x-s-x----x----x--x---x-----------x-s--x----x-------------x-s-x----x--
    5l--0--0--9 s 10----9---7--7--10--0--0-10s12---12---0--0--12s14---14
    6l--0--0--------------------------------0--0--------------------0--0----------------

    3l--5m-5m-5-7-4-5----5m-5m-4-5m----5m-5s7s4--5-----
    4l--5m-5m-5-5-5-5----5m-5m-5-5m----5m-5s7s4--5----7
    5l-----------------------------------------------------------------------5

    s=สไลต์
    m=มิ้วสาย
  • cake
    Guest
  • 30 พ.ค.2550,18:24น.

    Cake
    ((ขอคอร์ดกีต้าร์))
  • 14 ธ.ค.2556,12:23น.
    ห้ามใจ
    Intro:
    / Em / Em / Csus2 / Csus2 D / (X2)

    Em7 Am
    สุดท้าย ต่อให้เหนี่ยวรั้งสักเท่าไหร่
    Bm
    แต่โลกก็ต้องหมุน
    Em7 Am
    สุดท้าย วันที่คนรักมาแปรเปลี่ยน
    Bm
    จะห้ามอย่างไร

    Em7
    *ในเมื่อทางทุกทางที่มี
    Csus2
    ในเมื่อคำทุกคำที่ดี มันหมดความหมาย
    Em7
    ในเมื่อใจของเธอไม่มี
    Csus2
    ในเมื่อมันไม่มีวิธี จะทำเท่าไหร่
    Dsus4
    ในวันนี้มันคงสายไป

    G Dsus4 Em7
    ** ไม่มีสิทธ์ที่จะไปห้ามให้เธอไม่ไป
    Csus2
    ในเมื่อเธอไม่เหลือใจ ห้ามยังไง
    G Dsus4 Em7
    ได้แต่บอกและสั่งตัวเองให้ค่อยห้ามใจ
    Csus2 Em7
    ไม่ให้ร่ำร้อง
    (เจ็บเท่าไหร่ก็ต้องเก็บไว้)

    Em7 Am
    จากนี้ โลกก็คงหมุนไปทางเก่า
    Bm
    แต่ไม่มีเราแล้ว
    Em7 Am
    สุดท้าย คนเราคงพบเพื่อลาจาก
    Bm
    แค่นี้ใช่ไหม

    Repeat * , **

    Instrument:
    / Em / Em / Csus2 / Csus2 D / (X2)

    Em7
    รัก รัก รัก ก็เท่านั้น
    Csus2
    รู้ รู้ สุดทางสุดท้ายไม่เหลือใคร
    Em7
    รัก รัก รัก จบตรงนี้
    Csus2 D
    รู้ รู้ แต่จะให้ฉันทำอย่างไร

    Repeat **

    G Dsus4 Em7 Csus2
    วันที่เธอนั้นร่ำลา วันที่เธอทึ้งฉันไป โฮว์
    G Dsus4 Em7
    ได้แต่บอกและสั่งตัวเองให้ค่อยห้ามใจ
    Csus2 Em7
    เมื่อไม่เหลือใคร ฮูว์
    Csus2 Em7
    จะไม่เสียใจ จะไม่ร่ำร้อง
    Csus2 Em7
    เมื่อไม่เหลือใคร
  • 22 ก.ย.2557,01:35น.
    Intro:Em/C/G/D(2times)
    
      Em  /C                 G                       D
    สุดท้าย  ต่อให้เหนี่ยวรั้งสักเท่าไหร่ แต่โลกก็ต้องหมุน
    Em  /C              G                       D 
      สุดท้าย วันที่คนรักมาแปรเปลี่ยน จะห้ามอย่างไร    
    
                  Em                           D                        C               G
    * ในเมื่อทางทุกทางที่มี ในเมื่อคำทุกคำที่ดี มันหมดความหมาย    
              Em                           D                        C               D 
    ในเมื่อใจของเธอไม่มี ในเมื่อมันไม่มีวิธี จะทำเท่าไหร่ ในวันนี้มันคงสายไป
    
      G                        D                 Em                       C              G          
    ** ไม่มีสิทธ์ที่จะไปห้ามให้เธอไม่ไปในเมื่อเธอไม่เหลือใจ ห้ามยังไง
                                   D                Em        C      G (Em/C/G/D)
    ได้แต่บอกและสั่งตัวเองให้ค่อยห้ามใจ ไม่ให้ร่ำร้อง..   
    Em  /C             G                  D
      จากนี้ โลกก็คงหมุนไปทางเก่าแต่ไม่มีเราแล้ว   
    Em  /C               G                    D
    สุดท้าย  คนเราคงพบเพื่อลาจาก แค่นี้ใช่ไหม  
    
    (ซำ* / **  )
    
       Em/ C/ G /  D   Em/C               
    รู้รู้   สุดทางสุดท้ายไม่เหลือใคร    
                               G          D                         G
    รัก รัก รัก จบตรงนี้  รู้รู้ แต่จะให้ฉัน ทำอย่างไร 
    
    (ซ้ำ */**)
    
    G              D                      Em /C
    วันที่เธอร่ำลา วันที่เธอทึ้งฉันไป   
    G                           D                   Em             C     G/D  
    ได้แต่บอกและสั่งตัวเองให้ค่อยห้ามใจ เมื่อไม่เหลือใคร
              Em /C        G /D            Em /C      G 
    จะไม่เสียใจ   จะไม่รำร้อง   เมื่อไม่เหลือใครเฮ้อเฮอ.
  • 22 ก.ย.2557,01:35น.
    Intro:Em/C/G/D(2times)
    
      Em  /C                   G                       D
    
    สุดท้าย    ต่อให้เหนี่ยวรั้งสักเท่าไหร่ แต่โลกก็ต้องหมุน
    
    Em  /C                G                       D 
    
      สุดท้าย   วันที่คนรักมาแปรเปลี่ยน จะห้ามอย่างไร    
    
                 Em                           D                        C               G
    
    *ในเมื่อทางทุกทางที่มี ในเมื่อคำทุกคำที่ดี มันหมดความหมาย    
    
              Em                           D                        C               D 
    
    ในเมื่อใจของเธอไม่มี ในเมื่อมันไม่มีวิธี จะทำเท่าไหร่ ในวันนี้มันคงสายไป
    
      G                       D                 Em                       C              G          
    
    **ไม่มีสิทธ์ที่จะไปห้ามให้เธอไม่ไปในเมื่อเธอไม่เหลือใจ ห้ามยังไง
    
                                                                                       
    
                                     D                Em        C      G (Em/C/G/D)
    
      ได้แต่บอกและสั่งตัวเองให้ค่อยห้ามใจ ไม่ให้ร่ำร้อง..   
    
    
    
    Em  /C                 G                  D
    
      จากนี้     โลกก็คงหมุนไปทางเก่าแต่ไม่มีเราแล้ว   
    
    Em  /C                 G                    D
    
    สุดท้าย    คนเราคงพบเพื่อลาจาก แค่นี้ใช่ไหม  
    
    (ซำ* / **  )
    
    
    
         Em/ C/ G /  D               Em/C               
    
      รู้รู้ .....     สุดทางสุดท้ายไม่เหลือใคร    
    
                               G             D                         G
    
    รัก รัก รัก จบตรงนี้   รู้รู้   แต่จะให้ฉัน ทำอย่างไร 
    
    
    
      *, ** 
    
    G              D                      Em /C
    
    วันที่เธอร่ำลา วันที่เธอทึ้งฉันไป   
    
    G                           D                   Em             C     G/D  
    
    ได้แต่บอกและสั่งตัวเองให้ค่อยห้ามใจ เมื่อไม่เหลือใคร
    
              Em /C        G /D            Em /C      G 
    
    จะไม่เสียใจ   จะไม่รำร้อง   เมื่อไม่เหลือใครเฮ้อเฮอ.
1

ขอเชิญร่วมแสดงความคิดเห็นครับ

คลิกที่รูป เพื่อแทรกรูปลงในข้อความ
  • Member :
    username
    password
  • Not a member :
    name
    email